Guitaretab - guitar tabs
Song name
# A B C D E F G H I J K L M N O P Q R S T U V W X Y Z

Bap - Verdamp Lang Her tab

Verdamp lang her
diese Version beinhaltet mal ausnahmsweise das richtige Strophenriff dann klingt 
das ganze auch endlich so wie es soll... :-D

Verse: Stress on  3,5 and 7
  e                  D                 C       e          D
e------------------|-----------------|--------------------|-----------------|
H------------------|-----------------|--------------------|-----------------|
G------------------|-----------------|--------------------|-----------------|
D-----9---10---9---|-7---9---7---9-7-|-----------10---9---|-7---9---7---9-9-|
A-7-7---7----7---7-|---5---5---5-----|-10-7-10-7----7---7-|---5---5---5-----|
E------------------|-----------------|--------------------|-----------------|

alle noten auf der a seite werden abgedämpft gespielt ausser da G (10)!!!!
[ Tab from: http://www.guitaretab.com/b/bap/183241.html ]
Bridge:
  C             A           D             B
e-------------|-----------|-------------|-----------|
H-------------|-----------|-------------|-----------|
G-5-5-x-5-5-4-|-------4-5-|-7-7-x-7-7-5-|-------5-7-|
D-5-5-x-5-5-4-|-7-7-x-4-5-|-7-7-x-7-7-5-|-9-9-x-5-7-|
A-3-3-x-3-3-2-|-7-7-x-----|-5-5-x-5-5-3-|-9-9-x-----|
E-------------|-5-5-x-----|-------------|-7-7-x-----|

  C             D             e 
e-------------|-------------|-----------------|
H-------------|-------------|-----------------|
G-5-5-x-x-5-x-|-7-7-x-x-7-x-|-9-9-x-9-7-5-5-7-|
D-5-5-x-x-5-x-|-7-7-x-x-7-x-|-9-9-x-9-7-5-5-7-|
A-3-3-x-x-3-x-|-5-5-x-x-5-x-|-7-7-x-7-5-3-3-5-|
E-------------|-------------|-----------------|

Chorus:
  G           D
e-----------|-----------|-----------|-----------|
H-----------|---7-7-6---|-----------|---7-7-7---|
G-----------|-7-6-6-6-x-|-5-x-x-5-x-|-7-6-6-6-x-|
D-5-x-x-5-x-|-7-------x-|-5-x-x-5-x-|-7-------x-|
A-5-x-x-5-x-|-5-------x-|-3-x-x-3-x-|-5-------x-|
E-3-x-x-3-x-|-----------|-----------|-----------|

viel spass damit, das Strophenriff könnt ihr auch als guitar pro tab haben...
einfach email an ramses_pyramiedenverleih@live.de

lg ramses
Related for Verdamp Lang Her tab
Advertisement will be closed in 10 seconds