Song name
# A B C D E F G H I J K L M N O P Q R S T U V W X Y Z

Bap - Ahnunfursich tab

BAP - Ahnunfürsich


Intro
E |-12b(14)~--12~----------------------------------------------------------|
H |-----------------12-12b(13)~--------------------------------------------|
G |--------------------------------9b(10)~-9------------11-9---------------|
D |--------------------------------------------9-9b(10)-9--7---------------|
A |------------------------------------------------------------------------|
E |------------------------------------------------------------------------|


Licks played in verse
E |------------------------------------------------------------------------|
H |------------------------------------------9b(10)r~----------------------|
G |---------------------------------------------------9-9b(11)-x-10r(9)~---|
D |--19b(21)-19b(21)-19b(21)-21r(19)—14~-----------------------x-----------|
A |------------------------------------------------------------------------|
E |------------------------------------------------------------------------|


Chorus
     G5                    Am
E |------------------------------------------------------------------------|
H |--------3---------3-----------------------------------------------------|
G |------------------------------5---------5-------------------------------|
D |------5---------5-----------7-----7-------7-----------------------------|
A |----5---------5-----------7---------7--------7--------------------------|
E |--3---------3-----------5-----------------------------------------------|
Tap to rate this tab
# A B C D E F G H I J K L M N O P Q R S T U V W X Y Z