Guitaretab - guitar tabs
Song name
# A B C D E F G H I J K L M N O P Q R S T U V W X Y Z

Barathrum - Angelburner tab

Barathrum: Angelburner (or whatever)

Intro
-------------------------------------------------
-------------------------------------------------
-------------------------------------------------
-22222222222222222222222222222222222222222222----
-------------------------------------------------
-------------------------------------------------
[ Tab from: http://www.guitaretab.com/b/barathrum/36047.html ]
Riff 1
-------------------------------------------------
-------------------------------------------------
-4-4-2-5-5--4-4-2------4-4-2-5-5--9-9-9-9-7-5----
-2-2-0-3-3--2-2-0-5-4--2-2-0-3-3--7-7-7-7-5-3----
------------------3-2----------------------------
-------------------------------------------------

Riff 2
-------------------------------------------------
-------------------------------------------------
-------------------------------------------------
-2-22-2-22-2-22-4/5-5/7---2-22-2-22-2-22-3-3-----
-2-22-2-22-2-22-4/5-5/7---2-22-2-22-2-22-3-3-----
-0-00-0-00-0-00-2/3-3/5---0-00-0-00-0-00-1-1-----

This is propably totally wrong.
Please e-mail corrections: beaviss@sci.fi
Related for Angelburner tab
Advertisement will be closed in 10 seconds