Guitaretab - guitar tabs
Song name
# A B C D E F G H I J K L M N O P Q R S T U V W X Y Z

Barathrum - Last Day In Heaven tab

BARATHRUM
Last Day In Heaven
from "Legions Of Perkele"
transcribed by: Reima Salo
email: powernet@artic.net

PART 1
e |------------------------------------------------------------------|
B |------------------------------------------------------------------|
G |------------------------------------------------------------------|
D |-----9-----9-----9-----9-----7------9-----9-----9-----9-----5-----|
A |-----7-----7-----7-----7-----5------7-----7-----7-----7-----3-----|
E |-0-0---0-0---0-0---0-0---0-0----0-0---0-0---0-0---0-0---0-0-------|

e |------------------------------------------------------------------|
B |------------------------------------------------------------------|
G |------------------------------------------------------------------|
D |-----9-----9-----9-----9-----7------9-----9-----------------------|
A |-----7-----7-----7-----7-----5------7-----7------7--9-10--12------|
E |-0-0---0-0---0-0---0-0---0-0----0-0---0-0---0-0--5--7--8--10------|
[ Tab from: http://www.guitaretab.com/b/barathrum/36048.html ]
PART 2
e |-------------------------------------------------------------------------|
B |-------------------------------------------------------------------------|
G |-------------------------------------------------------------------------|
D |-----9-----11-12------9-----11-12------9-----11-12---14--12-11-12-11-7---|
A |-----7------9-10------7------9-10------7------9-10---12--10--9-10--9-5---|
E |-0-0---0-0--------0-0---0-0--------0-0---0-0-----------------------------|

PART 3
e |----------------------------------------------------------|
B |----------------------------------------------------------|
G |----------------------------------------------------------|
D |--9------7-9-11---12-11-9---7---5~------------------------|
A |--7------5-7--9---10--9-7---5---3~------------------------|
E |----------------------------------------------------------|

Bass
G |----------------------------------------------------------|
D |--------------------------------------------2-4-5-4-2-----|
A |--7------5-7-9---10-9-7---5---3---------3-5-----------5---|
E |----------------------------------------------------------|



play order:

  6xPart 1
  4xPart 2
  4xPart 1
  4xPart 2
 14xPart 3
Related for Last Day In Heaven tab