Guitaretab - guitar tabs
Song name
# A B C D E F G H I J K L M N O P Q R S T U V W X Y Z

Barathrum - Dark Sorceress tab

Artist:Barathrum
Album:Saatana
Song: Dark Sorceress2 (Winter Siege)
Tabbed by: Astyr Pimeys (Finland)
Standard Tuning (EADGBE)

Riff:1x8-10
d:-| |-------------9/10/9/7/9/7/5/7/5----------9/10/9/10/12/10/12/14/12-----| |
a:-| |-------------7/ 8 /7/5/7/5/3/5/3----------7/ 8 /7/ 8 /10/ 8 /10/12/10-| |
e:-| |-------000--------------------------000-------------------------------| |
[ Tab from: http://www.guitaretab.com/b/barathrum/36052.html ]
Riff2:x5
d:-| |----------7-7--5-5-5-5-5/4-4--------7-7--5-5-5-5-5/7-7----| |
a:-| |----------9-5--3-3-3-3-3/2-2--------9-5--3-3-3-3-3/5-5----| |
e:-| |-----000------------------------000-----------------------| |

RiFF:1x8-10
RiFF:2x?

Fill:1x2
d:-| |---3-2------------------| |
a:-| |--0-----5-3-5-3-2/3/2---| |

RiFF:3
d:-| |---2--3--4--3----| |
a:-| |---2--3--2--1----| |
d:-| |---0--1----------| |
Related for Dark Sorceress tab
Advertisement will be closed in 10 seconds