Song name
# A B C D E F G H I J K L M N O P Q R S T U V W X Y Z

Barbie Almalbis - Goodbye My Shadow chords

Highlighted       Show chord diagrams
MY first tab! :D 
Verse (all the verses)
C Am C Am G

Bridge ---I'm leaving you....part (ulit ulit lang yan)
F Am G 

Astig PART :D
pkinggan niyo po para malaman nyo kung ilang strum :)))
E|------x-------x------x-----------|
B|------x-------x------x-----------|
G|------5-------7----- 11----------|
D|------3-------9------9-------- --|
A|------x-------x------x-----------|
E|------x-------x------x-----------|

E|------x-------x------x-----------|
B|------x-------x------x-----------|
G|------x-------x----- x-------- --|
D|------5-------7------7-------- --|
A|------3-------5------9-----------|
E|------x-------x------x-----------|

www.barbiealmalbis.com :)) 
http://www.facebook.com/BarbieAlmalbis 
Tap to rate this tab
 
# A B C D E F G H I J K L M N O P Q R S T U V W X Y Z