Song name
# A B C D E F G H I J K L M N O P Q R S T U V W X Y Z

Barbie Almalbis - Sorry Song tab

-------------------------------------------------------------------------------
			Sorry Song – Barbie Almalbis
-------------------------------------------------------------------------------
Tabbed by:Reggie Robles
Email: Broc_15@yahoo.com

Tuning:EADGBe

Kau na bhala dyan.. mga 80% sure ako dyan pakinggan nyu nalang ung plucking… para kay Kathy to…


Intro: 
e|---3-------2-------3-------2-------3-------2-------3------2----------------|
B|---3-------3-------3-------3-------3-------3-------3------3----------------|
G|---4-------2-------4-------2-------4-------2-------4------2----------------|
D|---5-------4-------5-------4-------5-------4-------5------4----------------| 
A|---X-------X-------X-------X-------X-------X-------X------X----------------|
E|---X-------X-------X-------X-------X-------X-------X------X----------------|

Verse 1
e|---3-------2-------3-------2-------3-------2-------3------2----------------|
B|---3-------3-------3-------3-------3-------3-------3------3----------------|
G|---4-------2-------4-------2-------4-------2-------4------2----------------|
D|---5-------4-------5-------4-------5-------4-------5------4----------------| 
A|---X-------X-------X-------X-------X-------X-------X------X----------------|
E|---X-------X-------X-------X-------X-------X-------X------X----------------|

e|---3-------2-------3-------2-------3-------2-------3------2----------------|
B|---3-------3-------3-------3-------3-------3-------3------3----------------|
G|---4-------2-------4-------2-------4-------2-------4------2----------------|
D|---5-------4-------5-------4-------5-------4-------5------4----------------| 
A|---X-------X-------X-------X-------X-------X-------X------X----------------|
E|---X-------X-------X-------X-------X-------X-------X------X----------------|

Refrain 
e|---3-------2-------3-------2-------3-------2-------3------2----------------|
B|---3-------3-------3-------3-------3-------3-------3------3----------------|
G|---4-------4-------4-------4-------4-------4-------4------4----------------|
D|---5-------4-------5-------4-------5-------4-------5------4----------------| 
A|---X-------X-------X-------X-------X-------X-------X------X----------------|
E|---X-------X-------X-------X-------X-------X-------X------X----------------|

Verse 2

e|---3-------2-------3-------2-------3-------2-------3------2----------------|
B|---3-------3-------3-------3-------3-------3-------3------3----------------|
G|---4-------2-------4-------2-------4-------2-------4------2----------------|
D|---5-------4-------5-------4-------5-------4-------5------4----------------| 
A|---X-------X-------X-------X-------X-------X-------X------X----------------|
E|---X-------X-------X-------X-------X-------X-------X------X----------------|

e|---3-------2-------3-------2-------3-------2-------3------2----------------|
B|---3-------3-------3-------3-------3-------3-------3------3----------------|
G|---4-------2-------4-------2-------4-------2-------4------2----------------|
D|---5-------4-------5-------4-------5-------4-------5------4----------------| 
A|---X-------X-------X-------X-------X-------X-------X------X----------------|
E|---X-------X-------X-------X-------X-------X-------X------X----------------|


Outro:

e|---2-------3-------2-------3-----------------------|
B|---3-------3-------3-------3-----------------------|
G|---2-------4-------2-------4-----------------------|
D|---4-------5-------4-------5-----------------------| 
A|---X-------X-------X-------X-----------------------|
E|---X-------X-------X-------X-----------------------|
Tap to rate this tab
# A B C D E F G H I J K L M N O P Q R S T U V W X Y Z