Song name
# A B C D E F G H I J K L M N O P Q R S T U V W X Y Z

Barbies Cradle - Playing In The Fields tab

PLAYING IN THE FIELDS by Barbie's Cradle

VERSE:

e|-----0-------0-------0-------3-------3-------0-------0-------0----|
B|---3---3---3---3---3---3---3---3---3---3---3---3---3---3---3---3--|
G|------------------------------------------------------------------|
D|------------------------------------------------------------------|
A|-3-------2-------0-------------------------------0----------------|
E|-------------------------3-------1-------0---------------3--------|

CHORUS:

e|-----0-------0-------0-------0-------0-------0-------0-------0----|
B|---3---3---3---3---3---3---3---3---3---3---3---3---3---3---3---3--|
G|------------------------------------------------------------------| 2x
D|------------------------------------------------------------------|
A|-3-------2-------0-------------------------------0----------------|
E|-------------------------3-------1-------0---------------3--------|

e|--------------|
B|--------------|
G|---1/2---1/2--|
D|---2/3---2/3--|
A|-2-----2------|
E|--------------|

ADLIB:

e|-5-5----3-3----2-2----2-2----|
B|-----5------5------5------5--|
G|-----------------------------| 3x
D|-----------------------------|
A|-5------3------2------2------|
E|-----------------------------|

NITRAM
05-18-08
9:06 AM
Tap to rate this tab
 
# A B C D E F G H I J K L M N O P Q R S T U V W X Y Z