Song name
# A B C D E F G H I J K L M N O P Q R S T U V W X Y Z

Barbies Cradle - Torete tab

Tabbed by: Ernest josef Pineda
Song name: Torete
band: Barbies cradle

Ito lang ung intro ng Torete 100% tama to
Mabilis lang dapat ung kamay nyo

Standard tuning: eBGDAE

       D    Dsus           F#m
e|--2-2-2/3--3-3p2-0---------------|
B|-----------------------2-2-2-2---|
G|---------------------------------|
D|--0----0-------------------------|
A|-----------------------0---0-----|
E|---------------------------------|

       Bm                  G
e|----------5---3p2-0-----3---3-3--|
B|--------3-----------------3--3-3-|
G|---------------------------------|
D|--0-1-2-2-2-2--------------------|
E|----------------------3-3-3------|

Repeat nyo lang ulit tapos yung 2nd don ganito

e|------------5---3p2-0---3---|
B|--------3---------------3---|
G|------------------------0---|
D|------------------------0---|
A|--0-1-2-2-2-2-----------2---|
E|------------------------3---|

Additional info:
Dun sa Verse: 
 Dun lang s una D-Dsus-F#m-Bm-G
 Lahat ay D-F#m-Bm-G

Dun sa bridge: (ung lead)

e|----/5--9-9-9s10-9-p7-p5----/5-3-3-3-2-2-2-3-3s5-3-2--|
B|--3-----------------------3---------------------------|
G|------------------------------------------------------|
D|------------------------------------------------------|
A|------------------------------------------------------|
E|------------------------------------------------------|

repeat nyo lang

End
Tapos na 
Para kay Ralph Valencia a.k.a "Lord of SEX"
Anong sagot sa no.20? Mayabang ka ba? Wag ka iyak,sexy jerk!
Badingcia....................

Tap to rate this tab
# A B C D E F G H I J K L M N O P Q R S T U V W X Y Z