Song name
# A B C D E F G H I J K L M N O P Q R S T U V W X Y Z

Barbies Cradle - Everyday tab

Help us improve GuitareTab! Take a short survey!
EVERYDAY by Barbie's Cradle

INTRO: A-A7-D-Dm (2x)

lead part:

e|-9-10-9----9--14-14-13----13--9-10-7----7--5-7-5-7--|
B|-10-----10----15-------15-----10-----10----7---7----|
G|-9------------14--------------9------------7---7----|  2x
D|----------------------------------------------------|
A|----------------------------------------------------|
E|----------------------------------------------------|

VERSE and CHORUS: A-A7-D-Dm

lead part:

e|----9----9----9----9---9-----------------13----13----13--|
B|-10---10---10---10---10-------15---15-------15----15-----|
G|---------------------------14----14---14-----------------|
D|---------------------------------------------------------|
A|---------------------------------------------------------|
E|---------------------------------------------------------|

ADLIB: A-A7-D-Dm

e|------------------------------------|
B|------------------------------------|
G|-----6---9-7-----6------6-----------|
D|-7-9---7-----7-9----7-9---7-5-7-9---|
A|------------------------------------|
E|------------------------------------|

e|-------9----12-10-------9--------9---------------|
B|-10-12---10-------10-12----10-12--10-8-10-12-10--|
G|-------------------------------------------------|
D|-------------------------------------------------|
A|-------------------------------------------------|
E|-------------------------------------------------|

NITRAM
05-16-08
2:21 AM

(-_-)zzz
Related for Everyday tab