Song name
# A B C D E F G H I J K L M N O P Q R S T U V W X Y Z

Barbies Cradle - Tabing Ilog chords

Highlighted       Show chord diagrams
Tabing Ilog
by Barbie's Cradle
Tuning: eadgbe

Intro & Verses:

e-----|-----| just keep repeating this chord pattern
b--9--|--4--| through the verses, intro, interludes
g--9--|--4--|
d--7--|--2--|
a-----|-----|
e-----|-----|

Pre-chorus: sa tuwina'y....
   AM7   E
e-----|-----| paulit ulit lng din toh.. then end at AM7..
b--2--|-----|
g--1--|--1--|
d--2--|--2--|
a--0--|--2--|
e-----|--0--|

Chorus: ngiting kasama ng hangin....
   AM7   E     C#m   AM7   C#m   A
e-----|--0--|-----|--0--|-----|-----|
b--2--|--0--|-----|--2--|-----|-----|
g--1--|--1--|--6--|--1--|--6--|--6--|
d--2--|--2--|--6--|--2--|--6--|--7--|
a--0--|--2--|--4--|--0--|--4--|--7--|
e-----|--0--|-----|-----|-----|--5--|

Back to Verse riff.

Sa ilog ang mundo'y tahimik
Akoy nakikinig sa awit ng hangin
Habang kayo'y hinihintay
Na sana'y dumating bago magdilim

Refrain:
Sa twina'y kandungan niyo ang duyan
Panaginip na walang katapusan
Ang ilog hantungan niya'y pangako
Ng inyong pagbabalik

Chorus:
Ngiting kasama ng hangin
Luhang daloy ng tubig sa ilog na di naglilihim

Sa ilog ang mundoy may himig
Di sana magpalit ang awit ng hangin
Habang kayo'y hinihintay
Mata'y may ngiti puso'y nananabik
(repeat refrain and chorus)

Sa ilog...

Tap to rate this tab
 
# A B C D E F G H I J K L M N O P Q R S T U V W X Y Z