Song name
# A B C D E F G H I J K L M N O P Q R S T U V W X Y Z

Barcelona - Its About Time tab

-------------------------------------------------------------------------------
                                     Barcelona - It's About Time
-------------------------------------------------------------------------------
Tabbed by: Kable95

Tuning: Standard

 Intro:
|--------------16-0-16-0-16-0-16-0-14-0-14-0-11-12-11--------------------|
|-14--12/16---------------------------------------------12/14------------|
|------------------------------------------------------------------------|
|------------------------------------------------------------------------|
|------------------------------------------------------------------------|
|------------------------------------------------------------------------|

|---------12-11---16-0-16-0-16-0-16-0-14-0-14-0-11-12-11-----------------|
|-12-/-14---------------------------------------------------12/14--------|
|------------------------------------------------------------------------|
|------------------------------------------------------------------------|
|------------------------------------------------------------------------|
|------------------------------------------------------------------------|

Verse: 
C#m     B          A

F#m               C#m     B

C#m     B          A

F#m               C#m     B

G#      A          G#     A              

C#      B          A


 Chorus:
|----7---7---7---7---7---7---7---7---7---7---12---12---14---14---16----16------|
|-2/-----------------------------------0---0----0----0----0----0-----0-----0---|
|------6---6---6---6---6---6---6---6-------------------------------------------|
|------------------------------------------------------------------------------|
|------------------------------------------------------------------------------|
|------------------------------------------------------------------------------|

|-9--9--9--9--9--9--9--9--11-11-11-11-11-11-11-11-12-12-12-12-12-12-12-12-11-11-11-11-11-11-11-11-|
|-10-10-10-10-10-10-10-10-10-10-10-10-10-10-10-10-9--9--9--9--9--9--9--9--7--7--7--7--7--7--7--7--|
|-------------------------------------------------------------------------------------------------|
|-------------------------------------------------------------------------------------------------|
|-------------------------------------------------------------------------------------------------|
|-------------------------------------------------------------------------------------------------|

|-7---7---7---7---7---7---7---7---7---7---12---12---14---14---16----16------|
|-----------------------------------0---0----0----0----0----0-----0-----0---|
|---6---6---6---6---6---6---6---6-------------------------------------------|
|---------------------------------------------------------------------------|
|---------------------------------------------------------------------------|
|---------------------------------------------------------------------------|

|-9--9--9--9--9--9--9--9--11-11-11-11-11-11-11-11-11-11-11-11-11-11-11-11-11-11-11-11-11-11-11-11-|
|-10-10-10-10-10-10-10-10-10-10-10-10-10-10-10-10-12-12-12-12-12-12-12-12-12-12-12-12-12-12-12-12-|
|-------------------------------------------------------------------------------------------------|
|-------------------------------------------------------------------------------------------------|
|-------------------------------------------------------------------------------------------------|
|-------------------------------------------------------------------------------------------------|

 Intro:
|--------------16-0-16-0-16-0-16-0-14-0-14-0-11-12-11--------------------|
|-14--12/16---------------------------------------------12/14------------|
|------------------------------------------------------------------------|
|------------------------------------------------------------------------|
|------------------------------------------------------------------------|
|------------------------------------------------------------------------|

|---------12-11---16-0-16-0-16-0-16-0-14-0-14-0-11-12-11-----------------|
|-12-/-14---------------------------------------------------12/14--------|
|------------------------------------------------------------------------|
|------------------------------------------------------------------------|
|------------------------------------------------------------------------|
|------------------------------------------------------------------------|

 Verse:
|---------------------------------------------------------------------------|
|-14\2--4-5--7-----9-/-12-\-4-/-9-\-2-----4-/-5-/-9-/-10--------------------|
|---------------------------------------------------------------------------|
|---------------------------------------------------------------------------|
|---------------------------------------------------------------------------|
|---------------------------------------------------------------------------|

|---------------------------------------------------------------------------|
|-9-/-12-\-7-/-12-\-9-/-12-\-2-----9-/-12-\-2-/-4-/-5-4---------------------|
|---------------------------------------------------------------------------|
|---------------------------------------------------------------------------|
|---------------------------------------------------------------------------|
|---------------------------------------------------------------------------|

 Chorus:
|----7---7---7---7---7---7---7---7---7---7---12---12---14---14---16----16------|
|-2/-----------------------------------0---0----0----0----0----0-----0-----0---|
|------6---6---6---6---6---6---6---6-------------------------------------------|
|------------------------------------------------------------------------------|
|------------------------------------------------------------------------------|
|------------------------------------------------------------------------------|

|-9--9--9--9--9--9--9--9--11-11-11-11-11-11-11-11-12-12-12-12-12-12-12-12-11-11-11-11-11-11-11-11-|
|-10-10-10-10-10-10-10-10-10-10-10-10-10-10-10-10-9--9--9--9--9--9--9--9--7--7--7--7--7--7--7--7--|
|-------------------------------------------------------------------------------------------------|
|-------------------------------------------------------------------------------------------------|
|-------------------------------------------------------------------------------------------------|
|-------------------------------------------------------------------------------------------------|

|-7---7---7---7---7---7---7---7---7---7---12---12---14---14---16----16------|
|-----------------------------------0---0----0----0----0----0-----0-----0---|
|---6---6---6---6---6---6---6---6-------------------------------------------|
|---------------------------------------------------------------------------|
|---------------------------------------------------------------------------|
|---------------------------------------------------------------------------|

|-9--9--9--9--9--9--9--9--11-11-11-11-11-11-11-11-11-11-11-11-12-12-12-12-11-11-11-11-12-12-12-12-|
|-10-10-10-10-10-10-10-10-10-10-10-10-10-10-10-10-12-12-12-12-12-12-12-12-12-12-12-12-12-12-12-12-|
|-------------------------------------------------------------------------------------------------|
|-------------------------------------------------------------------------------------------------|
|-------------------------------------------------------------------------------------------------|
|-------------------------------------------------------------------------------------------------|

Bridge:
A     E     A     E     
A     E     A     E

 Solo:
|-12-12-12-12-11-11-11-11-16-16-16-16-11-11-11-11-|
|-------------------------------------------------|
|-------------------------------------------------| x2
|-------------------------------------------------|
|-------------------------------------------------|
|-------------------------------------------------|

|-12-12-12-12 14-14-14-14-16-16-16-16-17-17-17-17-14-14-14-14-14-14-14-14-11-11-11-11-11-11-11-11-|
|-------------------------------------------------------------------------------------------------|
|-------------------------------------------------------------------------------------------------|
|-------------------------------------------------------------------------------------------------|
|-------------------------------------------------------------------------------------------------|
|-------------------------------------------------------------------------------------------------|

|-12-12-12-12-11-11-11-11-16-16-16-16-11-11-11-11-|
|-------------------------------------------------|
|-------------------------------------------------| x2
|-------------------------------------------------|
|-------------------------------------------------|
|-------------------------------------------------|

|-12-12-12-12 14-14-14-14-16-16-16-16-17-17-17-17-19-19-19-19-20-20-20-20-14-14-14-14-14-14-------|
|-------------------------------------------------------------------------------------------------|
|-------------------------------------------------------------------------------------------6-----|
|-------------------------------------------------------------------------------------------------|
|-------------------------------------------------------------------------------------------------|
|-------------------------------------------------------------------------------------------------|

 Chorus:
|-7---7---7---7---7---7---7---7---7---7---12---12---14---14---16----16------|
|-----------------------------------0---0----0----0----0----0-----0-----0---|
|---6---6---6---6---6---6---6---6-------------------------------------------|
|---------------------------------------------------------------------------|
|---------------------------------------------------------------------------|
|---------------------------------------------------------------------------|

|-9--9--9--9--9--9--9--9--11-11-11-11-11-11-11-11-12-12-12-12-12-12-12-12-11-11-11-11-11-11-11-11-|
|-10-10-10-10-10-10-10-10-10-10-10-10-10-10-10-10-9--9--9--9--9--9--9--9--7--7--7--7--7--7--7--7--|
|-------------------------------------------------------------------------------------------------|
|-------------------------------------------------------------------------------------------------|
|-------------------------------------------------------------------------------------------------|
|-------------------------------------------------------------------------------------------------|

|-7-9--|  A     E     B     A     B     E
|-7-9--|
|------|
|------|
|------|
|------|

************************************

| /   slide up
| \   slide down
| h   hammer-on
| p   pull-off
| ~   vibrato
| +   harmonic
| x   Mute note
| b   Bend
| pb  Pre-bend
| br  Bend release
| pbr Pre-bend release
| brb Bend release bend

************************************
Tap to rate this tab
# A B C D E F G H I J K L M N O P Q R S T U V W X Y Z