Song name
# A B C D E F G H I J K L M N O P Q R S T U V W X Y Z

Barclay James Harvest - Suicide tab

Barclay James Harvest - Suicide?
(From Octoberon, 1976)

Intro:

  [E]                              [A]
e|------------------------11--12--|9-----------------------9---11--|
B|12------------------------------|--------------------------------|
G|--------------------------------|--------------------------------|
D|--------------------------------|--------------------------------|
A|--------------------------------|--------------------------------|
E|--------------------------------|--------------------------------|

  [E]                              [A]
e|12----------------------11--12--|11------9-9---------------------|
B|--------------------------------|------------------------12--10--|
G|--------------------------------|--------------------------------|
D|--------------------------------|--------------------------------|
A|--------------------------------|--------------------------------|
E|--------------------------------|--------------------------------|

  [C#m]                            [A]             [E]
e|--------------------------------|--------------------------------|
B|9---------------------9-10-9----|--------------------------------|
G|--------11----------11------11--|11------9-----------------------|
D|--------------------------------|------------------------11------|
A|--------------------------------|--------------------------------|
E|--------------------------------|--------------------------------|

  [F#m]                            [B]
e|--------------------------------|--------------------------------|
B|10------------------10--9-------|--------------------------------|
G|----------------------------9---|11------------------------------|
D|--------------------------------|--------------------------------|
A|--------------------------------|--------------------------------|
E|--------------------------------|--------------------------------|

  [E]                              [A]
e|------------------------11--12--|9-----------------------9---11--|
B|12------------------------------|--------------------------------|
G|--------------------------------|--------------------------------|
D|--------------------------------|--------------------------------|
A|--------------------------------|--------------------------------|
E|--------------------------------|--------------------------------|

  [E]                              [A]
e|12----------------------11--12--|11------9-9---------------------|
B|--------------------------------|------------------------12--10--|
G|--------------------------------|--------------------------------|
D|--------------------------------|--------------------------------|
A|--------------------------------|--------------------------------|
E|--------------------------------|--------------------------------|

  [C#m]                            [A]             [E]
e|--------------------------------|--------------------------------|
B|9---------------------9-10-9----|--------------------------------|
G|--------11----------11------11--|11------9-----------------------|
D|--------------------------------|------------------------11------|
A|--------------------------------|--------------------------------|
E|--------------------------------|--------------------------------|

  [F#m]                            [E]
e|--------------------------------|--------------------------------|
B|10------------------10--9-------|--------------------------------|
G|----------------------------9---|9-------------------------------|
D|--------------------------------|--------------------------------|
A|--------------------------------|--------------------------------|
E|--------------------------------|--------------------------------|
Tap to rate this tab
 
# A B C D E F G H I J K L M N O P Q R S T U V W X Y Z