Song name
# A B C D E F G H I J K L M N O P Q R S T U V W X Y Z

Bare Egil Band - Aliens 2 tab

Group : Bare Egil Band
Song  : Aliens 2


Transcribed by GuitarEspen

Acoustic Steel
E|------0-------0-------0-------3--------0-------0-------0-------3--------0--------0--------0------|
B|------1-------1-------1-------3--------1-------1-------1-------3--------1--------1--------1------|
G|------0-------0-------0-------0------0---------0-------0-------0------0----------0--------0------| 
D|----2---2---2---2---2---2-------0--3-----0---2---2---2---2-------0--3-----0----2----2---2--------| 
A|--3-------3-------3---------2--------------3-------3---------2---------------3--------3----------|
E|--------------------------3--------------------------------3-------------------------------------|
It goes on like that for quite some time.


When the song has been playing for 1.58 minutes he starts to play this:

E|-------3--------3--------3-------3-------3--------3--------1-------3--------3-------3--------1---|
B|-------4--------4--------4-------4-------4--------3--------1-------4--------4-------3--------1---|
G|----0----0----0---0---0----0---0---0---0---0----0---0----1---1---0---0----0---0---0---0----1---1-|
D|-------------------------------------------------------3---------------------------------3-------|
A|--3---------3-------3--------3-------3-------------------------3--------3------------------------|
E|----------------------------------------------3----------------------------------3---------------|

That would be it. Enjoy!
Tap to rate this tab
# A B C D E F G H I J K L M N O P Q R S T U V W X Y Z