Song name
# A B C D E F G H I J K L M N O P Q R S T U V W X Y Z

Bare Egil Band - Bjrnen Sover tab

This is the tab of a norwegian song for children called "Bjørnen sover". In English this 
"the bear sleeps" ;)


E-------0-|-------1-|-0-0-------|
B-1-1-1---|-3-3-3---|-----3-3-1-|
G---------|---------|-----------|
D---------|---------|-----------|
A---------|---------|-----------|
E---------|---------|-----------|


E-0-0-0-0-3-1-|-------------|
B-------------|-3-3-3-3-6-5-|
G-------------|-------------|
D-------------|-------------|
A-------------|-------------|
E-------------|-------------|


E-------0-|-------1-|-0-0-------|
B-1-1-1---|-3-3-3---|-----3-3-1-|
G---------|---------|-----------|
D---------|---------|-----------|
A---------|---------|-----------|
E---------|---------|-----------|
Tap to rate this tab
# A B C D E F G H I J K L M N O P Q R S T U V W X Y Z