Song name
# A B C D E F G H I J K L M N O P Q R S T U V W X Y Z

Bare Egil Band - Asfalt tab

-------------------------------------------------------------------------------
			     Asfalt - Bare Egil Band
-------------------------------------------------------------------------------
Tabbed by: Nisko
Email: Nickolasask@hotmail.com

Tuning: Standard tuning

[Verse]

e|-1-1-1-1-1--3-3-3-3-3-3-3-3-3-3-3-3------|
B|-2-2-2-2-2--3-3-3-3-3-3-3-3-3-3-3-3------|
G|-3-3-3-3-3--0-0-0-0-0-0-0-0-0-0-0-0------| Repeat throughout the verse
D|-0-0-0-0-0--0-0-0-0-0-0-0-0-0-0-0-0------| 
A|------------2-2-2-2-2-2-2-2-2-2-2-2------|
E|------------3-3-3-3-3-3-3-3-3-3-3-3------|

[Chorus]

e|--1-1-1-1-1--3-3-3-3-3----|
B|--2-2-2-2-2--3-3-3-3-3----|
G|--3-3-3-3-3--0-0-0-0-0----| Just repeat it throughout the whole chorus
D|--0-0-0-0-0--0-0-0-0-0----|
A|-------------2-2-2-2-2----|
E|-------------3-3-3-3-3----|


That's the whole song, hope you enjoy learning it.
Tap to rate this tab
 
# A B C D E F G H I J K L M N O P Q R S T U V W X Y Z