Song name
# A B C D E F G H I J K L M N O P Q R S T U V W X Y Z

Barefoot Truth - Home tab

-------------------------------------------------------------------------------
			     SONG NAME - Band Name
-------------------------------------------------------------------------------
Tabbed by: Brenna
Email: bkekstbrown08@yahoo.com

Tuning: Standard Tuning

e|------------------------------------------------------------------------------|
B|---1-----------0-----------------0h1--------0---------------------------------|
G|------0-----0-----0-----0-------------0--------1-----1------------------------|
D|---------2-----------0--------2----------2--------2---------------------------|
A|---3-----------------------0--------------------------------------------------|
E|---------------3----------------------------0---------------------------------|

e|---------------------------------------------------------------------------|
B|---1-----------3-----------1-----------------------------------------------|
G|------3-----3-----5-----0-----0-----0-----0-----0--------------------------|
D|---------2-----------4-----------2-----------2-----------------------------|
A|---------------------------3-----------3-----------------------------------|
E|---1-----------3-----------------------------------------------------------|

| /  slide up
| \  slide down
| h  hammer-on
| p  pull-off
| ~  vibrato
| +  harmonic
| x  Mute note
===============================================================================

This is the intro (repeats twice), and it's also played for the first 2 verses and the 
2 verses. The rest of the song just follows the same chord progression

C G Am E F G C
Tap to rate this tab
# A B C D E F G H I J K L M N O P Q R S T U V W X Y Z