Song name
# A B C D E F G H I J K L M N O P Q R S T U V W X Y Z

Barefoot Truth - Windward tab

 E |-------------------------|----------------------------|-------------------------|
 B |-------------------------|----------------------------|-------------------------| 
 G |-------------------------|----------------------------|-------------------------|
 D |-------0-3p0-5-----------|-------0-3p0-5--------------|--3h5-2------------------|
 A |-------------------------|----------------------------|---------3-3h5-5-5-------|
 D |--3p0--------------------|--3p0-----------------------|-------------------------|

----------------------2-|
----------------------3-|
----------------------2-|
----3p2p0-------------0-|
----------3p2p0-------0-|
----------------/5-3--0-|
Tap to rate this tab
 
# A B C D E F G H I J K L M N O P Q R S T U V W X Y Z