Song name
# A B C D E F G H I J K L M N O P Q R S T U V W X Y Z

Barenaked Ladies - Wind It Up tab

ok, the other tab on this site for this song has all the chords and they're all perfect,
i just wanted to add this little detail on the riff on the beginning of the song and on
of the chords in the chorus of the song, so if you combine this with the other chord tab 
this song on this site it'll be perfect...

Intro riff that is played throughout the song
e-x----x---x-x-----------x----x---x------------------|
b-3----3-3-3-x-----------2----2-3-3------------------|
g-2----2-0-2-x-----------3----3-0-2------------------|
d-0----0-2-0-x--------0--0----0-2-0-----0-0h2p0------|
a--------3---x---0h3h5----------3---0h3---------3----|
e------------x---------------------------------------|
            /\
            ||
[slap the strings w/ a muted hand to quiet the guitar]

during chorus(the part where they sing "Wind me up") you play G   Em7  and then D and on
D, play this to sound more like the D chord played in the chorus

e-x--x-x--0--0-0--0h2--2-2--2h3--3-3--2--2-2--0--0-0--x--x-x--x--x-x---|
b-3--3-3--3--3-3----3--3-3----3--3-3--3--3-3--3--3-3--3--3-3--x--x-x---|
g-2--2-2--2--2-2----2--2-2----2--2-2--2--2-2--2--2-2--2--2-2--2--2-2---|
d-0--0-0--0--0-0----0--0-0----0--0-0--0--0-0--0--0-0--0--0-0--0--0-0---|
a----------------------------------------------------------------------|
e----------------------------------------------------------------------|
Tap to rate this tab
 
# A B C D E F G H I J K L M N O P Q R S T U V W X Y Z