Song name
# A B C D E F G H I J K L M N O P Q R S T U V W X Y Z

Barenaked Ladies - Easy tab

Barenaked Ladies
"Easy"

tabbed by Jarom Viehweg

Capo 2nd, but not covering the low E string (kind of like drop D tuning, but not really…)

The entire song is basically played with the index finder covering the D,G and B string 
the 4th fret, like playing an A chord in standard tuning (Like “Am I the Only One”)

Intro/Verse/Chorus

The whole song is basically this riff or a variation, with the exception of the bridge belows

E----------------------------------------------------|
B-------3---2-------------------3---2----------------|
G-----2---2---2h4----2--------2---2---2h4--2---------|
D-----2---2-------2h4---------2---2------------------|
A--0-----------------------0-------------------------|
E----------------------------------------------------|

E----------------------------------------------------|
B-------3---2-------------------3---2----------------|
G-----2---2---2h4----2--------2---2---2h4--2---------|
D-----2---2-------2h4---------2---2------------------|
A----------------------------------------------------|
E--3-----------------------3-------------------------|

E----------------------------------------------------|
B-------3---2-------------------3---2----------------|
G-----2---2---2h4----2--------2---2---2h4--0-2-------|
D-----2---2-------2h4---------2---2-------2h4--------|
A----------------------------------------------------|
E--0-----------------------0-------------------------|


E----------------------------------------------------|
B-------3---2-------------------3---2----------------|
G-----2---2---2h4----2--------2---2---2h4--0-2-------|
D-----2---2-------2h4---------2---2-------2h4--------|
A--0-----------------------0-------------------------|
E----------------------------------------------------|

“Easy to forget you…”

E-----0-----------0-----------0-----------0---------|
B-----2-----------2-----------2-----------2---------|
G-----2-----------2-----------2-----------2---------|
D-----2-----------2-----------2-----------2---------|
A-----x-----------0-----------4-----------5---------|
E-----2---------------------------------------------|
Tap to rate this tab
 
# A B C D E F G H I J K L M N O P Q R S T U V W X Y Z