Song name
# A B C D E F G H I J K L M N O P Q R S T U V W X Y Z

Barenaked Ladies - Its All Been Done tab

---------------------------------------------------------------------------         
                 It's All Been Done - Barenaked Ladies
---------------------------------------------------------------------------

Tabbed by: Zack0893
Email: blackbelt0893@aol.com


Tuning:


e|---------------|
B|---------------|
G|----7-6--4~----|
D|---------------|
A|---------------|
E|---------------|


e|--------------------------------|
B|-------------8--7--7p5----------|
G|------7h9p7--------7p6---4\-----|
D|--7h9--------------------5\-----|
A|--------------------------------|
E|--------------------------------|


e|--------------------------------10-9--------------|
B|-------------8--7--7p5-------10-------12-10-------|
G|------7h9p7--------7p6--7/9-----------------------|
D|--7h9---------------------------------------------|
A|--------------------------------------------------|
E|--------------------------------------------------|


e|---10----12----14----15--10-14----12-10----10-----|
B|-10---10----10----10-----------10-------10--------|
G|--------------------------------------------------|
D|--------------------------------------------------|
A|--------------------------------------------------|
E|--------------------------------------------------|


e|----10h12p10----10h12------------10-9-------------|
B|-10----------10-------10------10------12-10~------|
G|-------------------------7/9----------------------|
D|--------------------------------------------------|
A|--------------------------------------------------|
E|--------------------------------------------------|



| /  slide up
| \  slide down
| h  hammer-on
| p  pull-off
| ~  vibrato
====================================================================
Tap to rate this tab
# A B C D E F G H I J K L M N O P Q R S T U V W X Y Z