Song name
# A B C D E F G H I J K L M N O P Q R S T U V W X Y Z

Barenaked Ladies - Pinch Me tab

----------------------------------------------------------------------------
			     PINCH ME - Barenaked Ladies
----------------------------------------------------------------------------

Intro/Verse:
E----------------------------------|------------------------------------|
B-----1----------------------------|-----1------------------------------|
G----------------------0-----------|------------------------------------|
D-------------0--------0---0h2h3p2-|----------------0--------0-0h2h3p2--|
A---------------2-2h3--------------|------------------2-2h3-------------|
E-0h1---1h3-3----------------------|-0h1----1h3-3-----------------------|


Pre Chorus
E|------------------------------------|
B|------3-3------3-------1-----1/3----|
G|------2---2------2-------0----------|
D|------------------------------------|
A|------------------------------------|
E|--0h2-------0h2-----0h1----1-1/3----|

Chorus

C G F D/F#
C G F G
C G F D/F#
C G F

Verse

Pre Chorus

Chorus

Bridge

Am G F G
Solo (just a vague idea of what i think the solo sounds like. It was a five minute job 
feel free to take it and change what you feel neccessary)

E|------------------------------------|------------------------------------|
B|---3/5-3-3p0------------------------|--3b-3-3p1--------------------------|
G|---2/4-2-2p0-2p0--------------------|-----------2p0-2b-p0----------------|
D|------------------------------------|---------------------3p0------------|
A|------------------------------------|-------------------------3----------|
E|------------------------------------|---------------------------1--------|


E|-------------------------------------|-----------------------------------|
B|-------------------------------------|--3b-3-1---1-3-3b-3b---1-----------|
G|-------------------------------------|---------2-------------------------|
D|-------------------------------------|-----------------------------------|
A|---------------5-7-5-----------------|-----------------------------------|
E|--3-1---7-8-7------------------------|-----------------------------------|


E|-------------------------------------|-----------------------------------|
B|-1---------1---------1---------------|-/13-/15-/17-/15-/17-/13-----------|
G|---5p2p0-----5p2p0-----5p2p0---------|-------------------------5p2p0-----|
D|-------------------------------------|-----------------------------------|
A|-------------------------------------|-----------------------------------|
E|-------------------------------------|-----------------------------------|


E|-------------------------------------|-----------------------------------|
B|----1-3-3b-------1-------------------|--5-----------------------10-------|
G|--2--------5p2p0---5p2---------------|----5p2p0--------------12----12----|
D|-------------------------------------|-----------------------------------|
A|-------------------------------------|------------3/5--------------------|
E|-------------------------------------|-----------------3-----------------|
Tap to rate this tab
# A B C D E F G H I J K L M N O P Q R S T U V W X Y Z