Guitaretab - guitar tabs
Song name
# A B C D E F G H I J K L M N O P Q R S T U V W X Y Z

Barenaked Ladies - Blame It On Me tab

-------------------------------------------------------------------------------
			 BLAME IT ON ME - Barenaked Ladies
-------------------------------------------------------------------------------
Tabbed by: Barry Miles
Email: shoebox_of_lies@hotmail.com 

Tuning: Standard (EADGBe)

Intro (part 1):

e|----------------------------------------|
B|-2----2----0----0--2h3---3----2h3---2h3-|
G|-2----2----1----1--4-----4----4-----4---|
D|-4----4----2----2--4-----4----4-----4---|
A|-------------------2---2----2-----2-----|
E|-2--2----0----0-------------------------|

Intro (part 2 from piano, chords above):

F#m     E        Bm      F#m    E     Bm      
e|----------------------------------------------|
B|-3-2------3-2------------3-2----5-------2-----|
G|------4--------2--------------4-------4---2---|
D|----------------------------------------------|
A|----------------------------------------------|
E|----------------------------------------------|

Verse:
F#m       E                    Bm
  Here we are again, and weíre lookiní at each other 

as if each other were to blame
F#m                   E                        Bm
  You think youíre so smart, but Iíve seen you naked,

Iíll probably see you naked again
[ Tab from: http://www.guitaretab.com/b/barenaked-ladies/21724.html ]
Chorus (Intro part 2 played in background):
F#m            E                          Bm
   If all else fails, you can blame it on me
F#m            E                          Bm
   If all else fails, you can blame it on me
F#m                E              Bm
   If all else fails, blame it on me
        F#m F#m  E (stop)                   Bm
Well if all else fails, you can blame it on me

Bridge:
A           A7                D                  Dm                     A
Yes dear, I love you, but sometimes I think that loveís not enough for you
                  A7                      D
So you wanna play mind games? Well thatís fine go ahead, 
    Dm (hold)
lalala I canít hear you

Outro (from piano, chords above):

F#m     E      Bm                        F#m        E     Bm
e|----------------------------------5--7--9----------------------------5--7--|
B|-3-2-----5------2--------2--3--5-------------3-2-------------2--3--5-------|
G|------4-------4----2--4---------------------------4------------------------|
D|---------------------------------------------------------------------------|
A|---------------------------------------------------------------------------|
E|---------------------------------------------------------------------------|

  F#m    E     Bm       F#m      E         Bm                   F#m
e|-9---------------14-------------------------------------------2------------|
B|-------------------------15-14-----15-14----------------------2------------|
G|-------------------------------16---------14---------2---2----2-(hold)-----|
D|--------------------------------------------------------------4------------|
A|--------------------------------------------------------------4------------|
E|--------------------------------------------------------------2------------|

| /  slide up
| \  slide down
| h  hammer-on
| p  pull-off
| ~  vibrato
| +  harmonic
| x  Mute note
===============================================================================


Related for Blame It On Me tab