Song name
# A B C D E F G H I J K L M N O P Q R S T U V W X Y Z

Barenaked Ladies - Every Subway Car chords

Highlighted       Show chord diagrams
Play this between verses and over the chorus
C#m E B/A A

|-4--4-(4)-(4)--0--|-(0)---4-----0-0----|
|-5--4h=5p==4---0--|-(0)---5-4-4-2-2----|
|-6--4h=6p==4---1--|-(1)---6-4-4-2-2----|
|-6--4h=6p==4---2--|-(2)---6-4-4-2-2----|
|-4--4-(4)-(4)--2--|-(2)---4-0-0-0-0----|
|---------------0--|-(0)----------------|


Intro
Bsus2 A E 

Verses
G#m B C#m E 
My backpack was faded black
Bsus2 
But now it's all blue
G#m B C#m E 
It looks whack, but it's compact
Bsus2 
And works like brand-new


C#m E B/A A

|-4--4-(4)-(4)--0--|-(0)---4-----0-0----|
|-5--4h=5p==4---0--|-(0)---5-4-4-2-2----|
|-6--4h=6p==4---1--|-(1)---6-4-4-2-2----|
|-6--4h=6p==4---2--|-(2)---6-4-4-2-2----|
|-4--4-(4)-(4)--2--|-(2)---4-0-0-0-0----|
|---------------0--|-(0)----------------|

G#m B C#m E 
I had found an old Greyhound
Bsus2 
But it wasn't my scene
G#m B C#m E 
I'm underground at the turnaround
Bsus2 
This one is pristine

C#m E B/A A
Ware-Hous-es A--bov----e All I'm Thinking Of
|-4----4----(4)-(4)--0--|-(0)---4-----------0----0----|
|-5----4h====5p==4---0--|-(0)---5----4--4---2----2----|
|-6----4h====6p==4---1--|-(1)---6----4--4---2----2----|
|-6----4h====6p==4---2--|-(2)---6----4--4---2----2----|
|-4----4----(4)-(4)--2--|-(2)---4----0--0---0----0----|
|--------------------0--|-(0)-------------------------|


Warehouses above
All I'm thinking of
You gave your heart to me
And soon the world will see
Our graffiti love
Spray-paint on my glove
No wonder who you are
On every subway car

G#m B C#m E 
I'm on my own  I'm Sly Stallone
Bsus2 
I did it for you
G#m B C#m E 
But I've outgrown my wings and flown
Bsus2 
Into something brand new
G#m B C#m E 
I show restraint; I'm the patron saint
Bsus2
Of urban gardens in bloom
G#m B C#m E 
If I don't faint ingesting paint
Bsus2
Breathing all of these fumes

Warehouses above
All I'm thinking of
You gave your heart to me
And soon the world will see
Our graffiti love
Spray-paint on my glove
They'll wonder who you are
On every subway car

Bsus A E Esus4 E 
On every subway car you look amazing
Bsus A E Esus E
While streaming out of bars, their glasses raising
Bsus2 A
Systemically refused
Bsus2 A
And chemically removed

G#m B C#m E Bsus2 x2 
( solo mostly consists of the melody line in octaves with some 
riffing on the end of the progression)


Warehouses above
All I'm thinking of
You gave your heart to me
And soon the world will see
Our graffiti love
Belton on my glove
They'll wonder who you are
On every subway car
Our graffiti love
On every subway car
Our graffiti love 
Tap to rate this tab
 
# A B C D E F G H I J K L M N O P Q R S T U V W X Y Z