Barenaked Ladies - Its Only Me The Wizard Of Magicland tab

Hey guys, there were no tabs of this on this site, so i decided to do it myself. This is 
my first tab, so i would appreciate some comments and/or ratings. Thanks and enjoy!! 
BnL FOREVER!!!



Intro/ Main Riff:
E----------------------------------------------------------------------|
B----------------------------------------------------------------------|
G----------------------------------------------------------------------|
D---2-------------------------2----------------------------------------|
A---2---------------4-----2---2----------------------------------------|
E---0-----0-0-4p0-0---0-0-----0----------------------------------------|


Verse 1 pt1:
("Speakin' as a guy...")

    E5               E   Esus4
E-------------------------------|
B-------------------------------|
G--------------------1-1-2-2----|
D---2-2-2-2-2-2-2-2--2-2-2-2----|
A---2-2-2-2-2-2-2-2--2-2-2-2----|
E---0-0-0-0-0-0-0-0--0-0-0-0----|
   |_______________||_______|
           x2           x4
   (that's 16 total)


Verse 1 pt2:
(... natural, it's only me)

    A 		      B
E-----------------------------------|
B---2---X---------X---4--------4----|
G---2---X--2-2----X---4--------4----|
D---2---X--2-2----X---4--------4----|
A---0---X--0-0----X---2-----2--2----|
E-----------------------------------|


Post-Verse:

   E   Esus4
E-------------|
B-------------|
G--1-1-2-2----|
D--2-2-2-2----|
A--2-2-2-2----|
E--0-0-0-0----|
  |_______|
      x4

Verse 2 pt1:
("take it from a fella...")

   E5       E   Esus4
E-----------------------|
B-----------------------|
G-----------1-1-2-2-----|
D--2-2-2-2--2-2-2-2-----|
A--2-2-2-2--2-2-2-2-----|
E--0-0-0-0--0-0-0-0-----|
  |_______||_______|
      x4       x8

(Repeat verse pt2)

(Repeat riff)

Chorus:
("You could say I've tried everything...")

   A                E
E-------------------------------------||
B--2-----2-----2--------------------o-||
G--2-----2-----2----1---1-1-1-1-1-----||
D--2-----2-----2----2---2-2-2-2-2-----||  (play 2x)
A--0---0-0---0-0-0--2---2-2-2-2-2---o-||
E-------------------0---0-0-0-0-0-----||

   A                Am
E-------------------------------------|
B--2-----2-----2----1-----1-----1-----|
G--2-----2-----2----2-----2-----2-----|
D--2-----2-----2----2-----2-----2-----|
A--0---0-0---0-0-0--0---0-0---0-0-0---|
E-------------------------------------|

(Repeat riff)

(Repeat verses 1 and 2 w/ different lyrics)

(Repeat chorus w/ different lyrics)



Bridge:
                  C#m     B       E
And   if   your   heart   is   broken
           A                                    E
(5/4 time) You   can   just   do   what   you   do   best
A                                    E
You   can   just   do   what   you   do,
                           C#m      B       E
(Back to 4/4) When   your   heart   is   broken
      A                              E
(5/4) Trust   in   the   one   who   loves   you
A                       E
Never   put   others   above   you

(Back to 4/4)

(Repeat verses 1 and 2 with different lyrics)

(Repeat chorus)

(Repeat riff until end)




Lyrics:

*odd grunt*

Speaking as a guy who's really
Got it going on,
It's only natural,
It's only me.

Take it from a fella
Who's been 'round the block
So many times he's knows the only parking spot that's free.
It's only me.

You can say I've tried everything
I'd save on the wedding ring
Who knows me half as well as me?

I'm not anti-social
And it's nothing that's reproachful
It's just natural,
It's only me.

I can't think of anybody else I'd rather
Spend some one on one time with,
It's not that hard to see,
It's only me.

I'm the me in monogamy
I'm not asking a lot of me
I give me R-E-S-P-E-C-T.

And if your heart is broken
You can just do what you do best
You can just do what you do,
When your heart is broken
Trust in the one who loves you
Never put others above you

I thought I was using me
To get to you
But this is true.
I'm natural, it's only me.

They say you'll never love another
'Til you love yourself,
Well, brother I'm in love with everyone I see.
It's only me.

You could say I've tried every thing
I'd save on the wedding ring
Who knows me half as well as me?
I'm the me in monogamy
I'm not asking a lot of me
I give me R-E-S-P-E-C-T
Tap to rate this tab
 
# A B C D E F G H I J K L M N O P Q R S T U V W X Y Z