Song name
# A B C D E F G H I J K L M N O P Q R S T U V W X Y Z

Barenaked Ladies - Big Bang Theory tab

The Big Bang Theory Theme


Guitar 1

Intro

                              G  D  Em
------------------------------3--2--0--------|
---------1-----------3--------0--3--0--------|
------------0-----2-----2-----0--2--0--------|
-----2---------0--------------0--0--2--------| x2
--3---------------------------2--0--2--------|
------------------------------3-----0--------|

Chorus

  C       D       G       D       Em
--0-------2-------3-------2-------0----------|
--1-------3-------0-------3-------0----------|
--0-(x4)--2-(x4)--0-(x2)--2-(x2)--0----------|
--2-------0-------0-------0-------2-(x2)-----| x3
--3-------0-------2-------0-------2----------|
------------------3---------------0----------|

Ending

  C       D       G
--0-------2-------3---------|
--1-------3-------0---------|
--0-(x4)--2-(x4)--0---------|
--2-------0-------0---------|
--3-------0-------2---------|
------------------3---------|


Guitar 2

Intro

--19----19--15------15----19----|
--20-----------15---------------|
--19----------------------------|
--------------------------------|
--------------------------------|
--------------------------------|

Chorus

--12----15--15p14-------------------------------------------------------|
-----15------------15p13--13--15----------------------------------------|
---------------------------------12--16p14--------------12--16p14-------|
-------------------------------------------17p16--14-12-----------17p16-|
------------------------------------------------------------------------|
------------------------------------------------------------------------|

Ending

--------------------|
--------------------|
--------------------|
--14-12-------------|
---------10---------|
--------------------|
Tap to rate this tab
# A B C D E F G H I J K L M N O P Q R S T U V W X Y Z