Song name
# A B C D E F G H I J K L M N O P Q R S T U V W X Y Z

Barenaked Ladies - Some Fantastic tab

                             Some Fantastic
                            Barenaked Ladies


This is my first ever tab and is by no means perfect
sorry.


Capo 3


     Intro and verse                  3x
E-------------------------------------||--------------------------------|
B---0-----1-----------3-----------1---||--0-----1-----------1-----------|
G---0-----0-----------0-----------0--*||--0-----0-----------0-----------|
D------------------4-----------0-----*||-----------------2--------------|
A---------0-----2-----------0---------||--------0-----3-----------5-----|
E---3---------------------------------||--3-----------------------------|

E--------|---------------------------------------------------------------|
B------3-|-0-----1-----------3-----------1--0-----1-----------1----------|
G------0-|-0-----0-----------0-----------0--0-----0-----------0----------|
D---4----|----------------4-----------0--------------------2-------------|
A--------|-------0-----2-----------0--------------0-----3-----------5----|
E--------|-3--------------------------------3----------------------------|


              Pre-Chorus
E---------||--------------------------------|-------------------3--------|
B------3--||-----8--------8-----7--------7--|---0h1-----0h1-----0--------|
G------0--||-----0--------0-----0--------0--|---0-0-----0-0--------------|
D---4-----||--------------------------------|----------------------------|
A---------||--7--------6--------5-----5-----|----------------------------|
E---------||--------------------------------|----------------------------|


              Chorus      G        Gsus2    Cadd9    A7  3x  C
E---------||--------------3--------3--------3--------0---||--0--||------|
B---0h1---||--------------3--------3--------3--------2---||--1--||------|
G---0-0--*||--------------0--------0--------0--------0--*||--0--||------|
D--------*||--------------0--------0--------2--------2--*||--2--||------|
A---------||--------------2--------0--------3--------0---||--3--||------|
E---------||--------------3------------------------------||-----||------|


The Bridge is the same as the chorus but played slowly and
With this V to replace the A7

   C     Cadd9
E--0---0/0--||-------------------------------------------------------------|
B--1---1/3--||-------------------------------------------------------------|
G--0---0/0--||-------------------------------------------------------------|
D--2---2/2--||-------------------------------------------------------------|
A--3---3/3--||-------------------------------------------------------------|
E-----------||-------------------------------------------------------------|
Tap to rate this tab
# A B C D E F G H I J K L M N O P Q R S T U V W X Y Z