Song name
# A B C D E F G H I J K L M N O P Q R S T U V W X Y Z

Barenaked Ladies - Wrap Your Arms Around Me tab

-------------------------------------------------------------------------------
                    WRAP YOUR ARMS AROUND ME - Barenaked Ladies
-------------------------------------------------------------------------------
Tabbed by: Pat Malavi
pat.malavi@gmail.com

Capo: 5th fret

Am   X02210
Am/B X2021X
C    X3201X

Intro

e|------------------------------------------------------------0--------------|
B|------5-----5-----3-----3-----1-----1-----1-----------1-------1-----1------|
G|--------0-----------0-----------0-----0---------0-------0-------0---0------|
D|-/5-5-----5---4-4-----4---2-2-----2-----2-----0-----0-----0-------0-2------|
A|--0-----------0-----------0-----------------------------------------3--3-2-|
E|--------------------------------------------3-----2------------------------|

Verse

    Am       Am/B         C
e|---------------------------------------------------------------------------|
B|----1-----------1---------------1-----1------------------------------------|
G|----2-2---2-------2---2-----0-----0---------0------------------------------|
D|----2---2-----0-----0----0h2--2-----2-----0--------------------------------|
A|--0--------0h2----------3---------------2----------------------------------|
E|---------------------------------------------------------------------------|

    Am       Am/B         C
e|--------------------------------3------------------------------------------|
B|----1-----------1--------------------1-------------------------------------|
G|----2-2---2-------2---2-----0-----0---------0------------------------------|
D|----2---2-----0-----0----0h2--2-----2-----0--------------------------------|
A|--0--------0h2----------3---------------2----------------------------------|
E|---------------------------------------------------------------------------|

     Am  Am/B      C
I concede you were right about this place
      Am             Am/B             C
I can make a perfect likeness of your body if I trace
      Am  Am/B      C
I can hold you 'til you turn out the light
            Am  Am/B      C
And I can't see

         Am   Am/B    C
Do you believe we are all innately good
       Am                   Am/B           C
Do you think that you would love me 'til tomorrow if you could
          Am    Am/B  C
Would you please turn down the radio
          Am  Am/B      C
So we can speak


Chorus

      Em     Em/Gb   Em/G   Em/Gb
e|-----3---------------------------------------------------------------------|
B|-----0---------------------------------------------------------------------|
G|-----0-------0-------0-------0---------------------------------------------|
D|-----2-------2-------2-------2---------------------------------------------|
A|-----2-------0-------0-------0---------------------------------------------|
E|---0-------2-------3-------2-----------------------------------------------|

         Em                Em/Gb     Em/G            Em/Gb
I put my hands around your neck, you wrap your arms around me
         Em                Em/Gb     Em/G            Em/Gb
I put my hands around your neck, you wrap your arms around me
         Em                Em/Gb     Em/G            Em/Gb
I put my hands around your neck, you wrap your arms around me
         Em                Em/Gb     Em/G            Em/Gb
I put my hands around your neck, you wrap your arms around me


Verse

    Am  Am/B   C
I regret every time I raised my voice
       Am               Am/B            C
And it wouldn't be that bright of me to say I had no choice
      Am  Am/B  C
I can kiss your eyes, your hair, your neck
        Am  Am/B    C
'til we forget


Repeat intro riff


     Am  Am/B      C
I concede you were right about this place
      Am             Am/B             C
I can make a perfect likeness of your body if I trace
      Am  Am/B      C
I can hold you 'til you turn out the light
            Am  Am/B      C
And I can't see
Tap to rate this tab
# A B C D E F G H I J K L M N O P Q R S T U V W X Y Z