Song name
# A B C D E F G H I J K L M N O P Q R S T U V W X Y Z

Barenaked Ladies - Another Postcard tab

Intro to Another Postcard
Tabbed by Sam Borchard

  C#m       A         F#m       B
e|-----4---|-----5---|-----5---|-----2---|
B|---5---5-|---5---5-|---7---7-|---4-----|
G|-6-------|-6-------|-6-------|-4-----5-|
D|---------|---------|---------|---------|  x2
A|---------|---------|---------|---------|      
E|---------|---------|---------|---------|
 | 1 2 3 4 | 1 2 3 4 | 1 2 3 4 | 1 2 3 4 |

  C#m       A         F#m        
e|-----4---|-----5---|---------|---------|
B|---5---5-|---5---5-|---------|---------|
G|-6-------|-6-------|-6-------|---------|
D|---------|---------|---------|---------|  
A|---------|---------|---------|---------|      
E|---------|---------|---------|---------|
 | 1 2 3 4 | 1 2 3 4 | 1 2 3 4 | 1 2 3 4 |

This riff is also played in the second half of the bridge. I was going to write out
the rest of the song, but the tab(ver 2) has everything else you need. An excellent
song and fun to play.

Sam
Tap to rate this tab
 
# A B C D E F G H I J K L M N O P Q R S T U V W X Y Z