Song name
# A B C D E F G H I J K L M N O P Q R S T U V W X Y Z

Barenaked Ladies - Testing 123 tab

Barenaked Ladies
Testing 1-2-3

Tabbed by Jarom Viehweg

Capo 2nd

I just listed the chords out (in tab form). I'll leave it to you to listed for the rhythm.

“Maybe it would be fun…”

E----------------------------------------------------------|
B-----3--------------------3-------------------------------|
G-----2--------------------0-------------------------------|
D-----0--------------------0-------------------------------|
A----------------------------------------------------------|
E--2--------------------3----------------------------------|

“Kinda like the first time…”

E-----2------2---------------------------------------------|
B-----3------3-3------3----3-3---3-3---3-3---3-3-3-3-3-3---|
G-----2------2-2------2----2-2---2-0---0-0---0-0-0-0-0-0---|
D-----0------0-x------x----x-2---2-0---0-0---0-2-2-2-2-2---|
A--------------4------2----2-0---0-2---2-x---x-2-2-2-2-2---|
E----------------------------------3---3-2---2-0-0-0-0-0---|

“Testing, 1-2-3…”

E-----2---------------------------------------------|
B-----3-----------3-----------3-----------3---------|
G-----2-----------0-----------0-----------0---------|
D-----0-----------2-----------0-----------0---------|
A-----------------3-----------2-----------2---------|
E-----------------------------0-----------3---------|

“We recognize…”
E-----------------3-----------2-----------3---------|
B-----3-----------3-----------3-----------3---------|
G-----2-----------0-----------2-----------0---------|
D-----0-----------2-----------0-----------0---------|
A-----2-----------3-----------------------2---------|
E-----------------------------------------3---------|

“As our nostalgia…”
E-----------------------------2-----------3---------|
B-----3-----------3-----------3-----------3---------|
G-----2-----------2-----------2-----------0---------|
D-----0-----------x-----------0-----------0---------|
A-----2-----------4-----------------------2---------|
E-----------------------------------------3---------|
“The past’ll be we presented…”
E-----------------------------2-----------2---------|
B-----3-----------3-----------3-----------3---------|
G-----2-----------2-----------2-----------2---------|
D-----0-----------x-----------0-----------0---------|
A-----2-----------4---------------------------------|
E---------------------------------------------------|
Tap to rate this tab
# A B C D E F G H I J K L M N O P Q R S T U V W X Y Z