Song name
# A B C D E F G H I J K L M N O P Q R S T U V W X Y Z

Bargain Music - Phycotic Sleepover tab

-------------------------------------------------------------------------------
			     Phycotic Sleepover - Bargain Music
-------------------------------------------------------------------------------
Tabbed by:Matt
Email:Juzcheknmail@aol.com

Tuning:standerd

Intro Clean: 2x                  
e|-------------------------------------------------------------------------|
B|-------------------------------------------------------------------------|
G|---------------------10101010--------------------------------------------|
D|---10--10--10--10----8-8-8-8-9999----------------------------------------|
A|---8---8---8---8-------------7777----------------------------------------|
E|-------------------------------------------------------------------------|
 
Play during "Did ya want it..."
 6x                   tremelo
e|------------------7777---------------------------------------------------|
B|----------------------5555b-slight-bend----------------------------------|
G|---10-10-10-10-----------------------------------------------------------|
D|---10-10-10-10-----------------------------------------------------------|
A|---8--8--8--8------------------------------------------------------------|
E|-------------------------------------------------------------------------|

Play during "have another of your pills..."
4x
e|-------------------------------------------------------------------------|
B|-------------------------------------------------------------------------|
G|--10-10-10-9-9-9-12-12-12-12/10------------------------------------------|
D|--10-10-10-9-9-9-12-12-12-12/10------------------------------------------|
A|--8--8--8--7-7-7-10-10-10-10/8-------------------------------------------|
E|-------------------------------------------------------------------------|

Thats it. listen to the song to get the placement.I think for the part where everything
stops and trips out you just smack the strings against the pickups.
Tap to rate this tab
# A B C D E F G H I J K L M N O P Q R S T U V W X Y Z