Song name
# A B C D E F G H I J K L M N O P Q R S T U V W X Y Z

Bark Psychosis - Nothing Feels tab

-------------------------------------------------------------------------------
			     NOTHING FEELS – Bark Psychosis
-------------------------------------------------------------------------------
Tabbed by: lifer
Email: paranoid_toaster@hotmail.com

Tuning: standard

This isn’t the absolutely correct way to play this song. I am just tabbing it for anyone
wants to play it solo.

Intro/Main riff

e|---------------------------------------------------------------------------|
B|-----3---------------------------------------------------------------------|
G|---2-----------------------------------------------------------------------|
D|--------(0)----------------------------------------------------------------|
A|----------------------2----------------------------------------------------|
E|---------------------------(0)---------------------------------------------|

The bass (I believe) is playing a very low note for the rhythm, lower than the E I
But it works just fine to play the root note of the D5 and Em chords (in brackets). Play them
many times as you need to establish a rhythm and play them softly. You’ll see these open 
in brackets for other riffs in this tab, just do the same thing.

Fill

e|--3-5------|
B|------5----|


Verse
         “Feel the earth and shingle”
                                            “Rushing sky”

e|-----0----------------------------------0----------------------------------|
B|---------------------------------------------------------------------------|
G|--2----------------------------------2-------------------------------------|
D|---------(0)--------------------------------(0)----------------------------|
A|-------------------2-------------------------------2-----------------------|
E|------------------------(0)------------------------------(0)---------------|


           “On your own”
                                                 “Feel myself high(?)”

e|------------------------------------0-----0-----0--------------------------|
B|-----0----------------------------0---0-----0-----0----0-------------------|
G|-------0------------------------0-------0-----0----------0-----------------|
D|------------------------------2--------------------------------------------|
A|--3-------------------------3----------------------------------------------|
E|---------------------------------------------------------------------------|


Verse 2: Pluck D and D5 chords (with open e). Plucking order for the four strings is
to high). Listen to get the rhythm and throw in some variation. The riff played over this
a variation on the main riff and goes something like this:

e|-------------------------------------3----------------3--------------------|
B|-----3--------------3------------------------------------------------------|
G|--2--------------2----------------2----------------2-----------------------|
D|-------(0)-------------(0)--------------(0)--------------(0)---------------|
A|-----------2---------------2----------------2----------------2-------------|
E|-------------(0)-------------(0)--------------(0)--------------(0)---------|


e|-----------------0---------------------------------------------------------|
B|-------------0-----(0)-----------------------------------------------------|
G|---------------2------(2)--------------------------------------------------|
D|-----(0)-------------------------------------------------------------------|
A|--(0)---(0)----------------------------------------------------------------|
E|---------------------------------------------------------------------------|

I’m not sure if the open notes on the A and D strings are actually played, but you can
them if it sounds a bit empty with just the other 3 notes. If you do decide to play those
notes, play them softly. Ditto for the last 2 notes, pretend your doing a fade out each time.

e|---------------------------------------------------------------------------|
B|----3------3-------------2------2------------------------------------------|
G|--2------2-------------2------2--------------------------------------------|
D|----(0)-----(0)----------(0)-----(0)---------------------------------------|
A|---------------------------------------------------------------------------|
E|---------------------------------------------------------------------------|

All the riffs are here now, you figure out the order. That’s all.

www.barkpsychosis.com
Tap to rate this tab
# A B C D E F G H I J K L M N O P Q R S T U V W X Y Z