Song name
# A B C D E F G H I J K L M N O P Q R S T U V W X Y Z

Bark Psychosis - I Know tab

Highlighted       Show chord diagrams
---------------------------------------------------------------------
                       I KNOW : Bark Psychosis
---------------------------------------------------------------------

Tabbed by: lifer
Email: paranoid_toaster@hotmail.com

Tuning: standard


   Am7  F7 Csus4 C
e|---0---0---0---0---------------------------------------------------
B|---1---1---1---1---------------------------------------------------
G|---0---2---0---0---------------------------------------------------
D|---2---3---3---2---------------------------------------------------
A|---0---3---3---3---------------------------------------------------
E|-------------------------------------------------------------------

Intro

Am7  F7

Build-up to verse

F7   Csus4

Verse

C   F7

Verse build-up

Am7   F7

Quiet part

C

e|----0----------|
B|------1--------|
G|--------0------|
D|---------------| Then strum (quietly)
A|--3------------|
E|---------------|
Tap to rate this tab
# A B C D E F G H I J K L M N O P Q R S T U V W X Y Z