Song name
# A B C D E F G H I J K L M N O P Q R S T U V W X Y Z

Bark Psychosis - 400 Winters chords

Highlighted       Show chord diagrams
---------------------------------------------------------------------------
                      400 WINTERS : Bark Psychosis
---------------------------------------------------------------------------
Tabbed by: lifer
Email:

Tuning: standard

   Em7 Dm9 Emaj7 Dmaj7 A Fmaj7 F G

e|---0---0---0---0---0---0---0---0-----------------------------------------|
B|---0---0---9---7---0---1---0---0-----------------------------------------|
G|---8---6---8---6---6---2---2---4-----------------------------------------|
D|---9---7---9---7---7---3---3---5-----------------------------------------|
A|---7---5---7---5---7---3---3---5-----------------------------------------|
E|-------------------5-------1---3-----------------------------------------|

Not to be confused with the G above, Ill call this Gprog

e|---5-5555-3-3333-0-0000--------------------------------------------------|
B|---0-0000-0-0000-0-0000-3-3333-------------------------------------------|
G|---0-0000-0-0000-0-0000-0-0000-------------------------------------------|
D|---0-0000-0-0000-0-0000-0-0000-------------------------------------------|
A|-------------------------------------------------------------------------|
E|---3-3333-3-3333-3-3333-3-3333-------------------------------------------|

Intro

Em7 Dm9

Emaj7
Loose rein, let us rest
Dmaj7
Where words speak, nor confess
Emaj7
Always beside, always besides
Dmaj7
For one another winding west
Emaj7                  
We seek and grow apart
A
(no lyrics, segue into second part)

Fmaj7		                  Gprog
Loose rein, let us rest
Fmaj7                          Gprog
Where words speak, nor confess
       Fmaj7
Always beside, always besides
    Gprog
For one another winding west
Fmaj7                  Gprog
We seek and grow apart

The rest is the same as above, except for the end where the song mellows out a bit:

F                        G
400 Winters, never count
F                              G
A final sign of things to come 
F                             G
You cannot lay your hand upon
F                              
A final sign of things to come
         G    F
Its only ever more

Tap to rate this tab
 
# A B C D E F G H I J K L M N O P Q R S T U V W X Y Z