Song name
# A B C D E F G H I J K L M N O P Q R S T U V W X Y Z

Bark Psychosis - Bloodrush tab

---------------------------------------------------------------------
                      BLOODRUSH : Bark Psychosis
---------------------------------------------------------------------
Tabbed by: lifer
Email:

Tuning: standard

e|-------------------------------------------------------------------|
B|---------3----------------3----------------------------------------|
G|-------0---0---0------0-----0---0----------------------------------|
D|-----4-------4------4---4-----4------------------------------------|
A|---5---------------------------------------------------------------|
E|-------------------------------------------------------------------|

e|-----------0-------------------------------------------------------|
B|---------3---3-----3-----------------------------------------------|
G|-------0-------0-------0---0---------------------------------------|
D|-----4-----------4-------4-----------------------------------------|
A|---5---------------------------------------------------------------|
E|-------------------------------------------------------------------|

e|-------------------------------------------------------------------|
B|---------3------2--------------------------------------------------|
G|-------2---2---(2)-------------------------------------------------|
D|-----0-------0-(0)-------------------------------------------------|
A|---0---------------------------------------------------------------|
E|-------------------------------------------------------------------|

e|---------0------------------2---------------------------------------|
B|-------3---3----2-----------2---------------------------------------|
G|-----2-------0(2)----------2---------------------------------------|
D|---0-----------(0)----------0---------------------------------------|
A|--------------------------------------------------------------------|
E|--------------------------------------------------------------------|
  Sweep up for final chord

e|---------------------------------------------------------0---------|
B|-------3---3---3---3---3---3-2-------3---3---3---3---2-------2-----|
G|-----2---2---2---2---2---2-----2---2---2---2---2---2---2---2---2---|
D|---0---------------------------------------------------------------|
A|-------------------------------------------------------------------|
E|-------------------------------------------------------------------|

e|-------------------------------------------------------------------|
B|---------0---------------0---------------0---------------0---------|
G|-----0-----0---0-----0-----0---0-----0-----0---0-----0-----0---0---|
D|---2---2-----2-----2---2-----2-----2---2-----2-----2---2-----2-----|
A|-------------------------------------------------------------------|
E|-------------------------------------------------------------------|

Final part

e|-------2-----2-----2-----2-----0-----------------------------------|
B|---------3-----3-----3-----3-----3---------------------------------|
G|-----2-------------------------------------------------------------|
D|---0-------0-----0-----0-----0-------------------------------------|
A|-------------------------------------------------------------------|
E|-------------------------------------------------------------------|

e|-------2-----2-----2-----3---0-------------------------------------|
B|---------3-----3-----3---------3-----------------------------------|
G|-----2---------------------------2---------------------------------|
D|---0-------0-----0-----0---0---------------------------------------|
A|-------------------------------------------------------------------|
E|-------------------------------------------------------------------|

e|-------------------------------------------------------------------|
B|-------3-----3-----2-----2-----2-----------------------------------|
G|---------2-----2-----2-----2-----2---------------------------------|
D|-----2-------------------------------------------------------------|
A|---0-------0-----0-----0-----0-------------------------------------|
E|-------------------------------------------------------------------|

e|-------------------------------------------------------------------|
B|-------3-----3-----2-----2-----2-----------------------------------|
G|---------2-----2-----2-----2-----2---------------------------------|
D|-----2-------------------------------------------------------------|
A|---0-------0-----0-----0-----0-------------------------------------|
E|-------------------------------------------------------------------|
Repeat ad nauseum
Tap to rate this tab
# A B C D E F G H I J K L M N O P Q R S T U V W X Y Z