Song name
# A B C D E F G H I J K L M N O P Q R S T U V W X Y Z

Barlow Girl - Grey tab

Help us improve GuitareTab! Take a short survey!
This guitar song tab of Grey is dedicated to my amazing girlfriend for always being 
and making me the happiest guy alive. Forever and Always Stac.

Standard (EBGDAE) tuning
First song tabbed, IM Scoped22 for comments.

http://www.garageband.com/artist/southwest_statistic

Intro/verse:

e---------------------------------     e-------------|
b---------------------------------     b-------------|
g--------------------------------- x2  g-------------|
d--2-1----2-1----2-1---2-1-2---2-1     d-2----2-1--2-| Play 2nd time.
a---------------------0-0---------     a-------------|
e-0-0----2-2----2-2-----------0-0-     e-----0-0-----|


Chorus:

e--------------------------------|
b--------------------------------|
g--------------------------------| x2
d--2-1----2-1-2----2-1----2-1-2--|
a-2-2----0-0---------------------|
e-----------------0-0----0-0-----|

e--------------------|
b--------------------|
g--------------------|
d--2-1-----2---2---2-|
a-2-2-----2---0------|
e-----------------2--|

e---------------------------|
b---------------------------|
g---------------------------|
d--2-1-2---2-1-2---2-1-2----|
a-0-0-----2-2---------------|
e-----------------0-0-----0-|


Break/verse:

e-0
b-0
g-1
d-2
a-2
e-0 This E chord is played over most of the song.

e---------------------------------     e-------------|
b---------------------------------     b-------------|
g--------------------------------- x3  g-------------|
d--2-1----2-1----2-1---2-1-2---2-1     d-2----2-1--2-| Play 2nd time.
a---------------------0-0---------     a-------------|
e-0-0----2-2----2-2-----------0-0-     e-----0-0-----|


Chorus:

e--------------------------------|
b--------------------------------|
g--------------------------------| x2
d--2-1----2-1-2----2-1----2-1-2--|
a-2-2----0-0---------------------|
e-----------------0-0----0-0-----|

e--------------------|
b--------------------|
g--------------------|
d--2-1-----2---2---2-|
a-2-2-----2---0------|
e-----------------2--|

e---------------------------|
b---------------------------|
g---------------------------|
d--2-1-2---2-1-2---2-1-2----|
a-0-0-----2-2---------------|
e-----------------0-0-----0-|


Bridge:

e----------------------------------|
b----------------------------------|
g----------------------------------|
d-----------------2222222222222222-|
a-22222222222222220000000000000000
e-0000000022222222----------------
 ___________Palm Muted____________

Chorus:

e--------------------------------|
b--------------------------------|
g--------------------------------| x2
d--2-1----2-1-2----2-1----2-1-2--|
a-2-2----0-0---------------------|
e-----------------0-0----0-0-----|

e--------------------|
b--------------------|
g--------------------|
d--2-1-----2---2---2-|
a-2-2-----2---0------|
e-----------------2--|

e---------------------------|
b---------------------------|
g---------------------------|
d--2-1-2---2-1-2---2-1-2----|
a-0-0-----2-2---------------|
e-----------------0-0-----0-|
Related for Grey tab