Barlow Girl - Psalm 73 My Gods Enough tab

                    -Barlow girl- Psalms 73 My Gods Enough 

Tabbed by:AC2106
Email: connora@email.sc.edu
Album: Another Journal Entry
Guitar tuning: Standard E tuning

 (Intro) 
E|--------------------------------------------------------------------------|
B|--------------------------------------------------------------------------|
G|7--7-----7--7-----7--7-----7--7-----7--7-----7--7-----7--7-----7--7-----7-|
D|-7--7-----8--8-----7--7-----8--8-----7--7-----8--8-----7--7-----8--8-----7|
A|--------------------------------------------------------------------------|
E|--------------------------------------------------------------------------|

E|----------------------------------------|
B|----------------------------------------|
G|-7-----7--7-----7--7--7--7--7--7--7--7--|
D|--7-----8--8-----7--7--7--7--8--8--8--8-|
A|----------------------------------------|
E|----------------------------------------|

E|--/13-12-10---------------------------------------------/13-12-10---------|
B|------------10~~~~10-10-10---8-10-13--10~~~~10-10-10~~~-----------10~~~~10|
G|--------------------------------------------------------------------------|
D|--------------------------------------------------------------------------|
A|--------------------------------------------------------------------------|
E|--------------------------------------------------------------------------|

E|----------------------------------------------------|
B|10-10---8-10-13~~13~~13~~13~~13~~14~~14~~14~~14~~~\-|
G|----------------------------------------------------|
D|----------------------------------------------------|
A|----------------------------------------------------|
E|----------------------------------------------------|

 (Verse) 
E|--------------------------------------------------------------------------|
B|--------------------------------------------5--5---------------------5--5-|
G|-7--7--7--7--5--5--9--9---7--7--7--7--5--5---5--5--7--7--7--7--5--5---5--5|
D|--7--7--8--8--3--3--10-10--7--7--8--8--3--3--------7--7--8--8--3--3-------|
A|--------------------------------------------------------------------------|
E|--------------------------------------------------------------------------|

E|-------------------|
B|-------------------|
G|7--7--7--7--5--5---|
D|--7--7--8--8--3--3-|
A|-------------------|
E|-------------------|

(Chorus) 
E|-----------------------------------------------------------------------------|
B|-----------------------------------------------------------------------------|
G|7¬-7-7-7\-3-3-3-3-------------------7-7-7-7\-3-3-3-3/-10-10-10\-5-5-5-5-5----|
D|7-7-7-7\-3-3-3-3-3-3-3/-7-7-7-7-7--7-7-7-7\-3-3-3-3/-10-10-10\-5-5-5-5-5-----|
A|5-5-5-5\-1-1-1-1-3-3-3/-7-7-7-7-7--5-5-5-5\-1-1-1-1/-8--8--8-\-3-3-3-3-3-----|
E|-----------------1-1-1/-5-5-5-5-5--------------------------------------------|


E|--------------------------------------------------------------------------|
B|--------------------------------------------------------------------------|
G|7-7-7-7\-3-3-3-3------------------------------------------------x--7-7-7-7|
D|7-7-7-7\-3-3-3-3-3-3-3/-7-7-7-7-7--5-5-5-5-7-7-7-7-8-8-8-8--8\--x--7-7-7-7|
A|5-5-5-5\-1-1-1-1-3-3-3/-7-7-7-7-7--5-5-5-5-7-7-7-7-8-8-8-8--8\--x--5-5-5-5|
E|-----------------1-1-1/-5-5-5-5-5--3-3-3-3-5-5-5-5-6-6-6-6--6\------------|

E|--------------------------------------------------------------------------|
B|--------------------------------------------------------------------------|
G|\3-3-3-3-------------------7-7-7-7\-3-3-3-3---------------------7-7-7-7\-3|
D|\3-3-3-3-3-3-3/-7-7-7-7-7--7-7-7-7\-3-3-3-3-3-3-3-3/-7-7-7-7-7--7-7-7-7\-3|
A|\1-1-1-1-3-3-3/-7-7-7-7-7--5-5-5-5\-1-1-1-1-3-3-3-3/-7-7-7-7-7--5-5-5-5\-1|
E|---------1-1-1/-5-5-5-5-5-------------------1-1-1-1/-5-5-5-5-5------------|

E|----------------------------------------------------------|
B|----------------------------------------------------------|
G|3-3-3-------------------7-7-7-7\-3-3-3-3------------------|
D|3-3-3-3-3-3/-7-7-7-7-7--7-7-7-7\-3-3-3-3-3-3-3/-7-7-7-7-7-|
A|1-1-1-3-3-3/-7-7-7-7-7--5-5-5-5\-1-1-1-1-3-3-3/-7-7-7-7-7-|
E|------1-1-1/-5-5-5-5-5-------------------1-1-1/-5-5-5-5-5-|

(Bridge)
E|--/13-12-10---------------------------------------------/13-12-10---------|
B|------------10~~~~10-10-10---8-10-13--10~~~~10-10-10~~~-----------10~~~~10|
G|--------------------------------------------------------------------------|
D|--------------------------------------------------------------------------|
A|--------------------------------------------------------------------------|
E|--------------------------------------------------------------------------|

E|---------------------------|
B|10-10---8-10-13-13~~~~~~~\-|
G|---------------------------|
D|---------------------------|
A|---------------------------|
E|---------------------------|

(Verse)
E|--------------------------------------------------------------------------|
B|--------------------------------------------------------------------------|
G|-----7-7\------3-3--------------------------7-7\------3-3-----------------|
D|-----7-7\------3-3------3/--------7-7-------7-7\------3-3------3/--------7|
A|-5-5-5-5\--1-1-1-1------3/--------7-7---5-5-5-5\--1-1-1-1------3/--------7|
E|--------------------1-1-1/--5-5-5-5-5----------------------1-1-1/--5-5-5-5|
P.M...     ...      ...    .....      ...      ...     ...    ......

E|--------------------------------------------------------------------------|
B|--------------------------------------------------------------------------|
G|---------7-7\------3-3----------------------------------------------------|
D|-7-------7-7\------3-3------3/--------7-7--5-5-5-5-7-7-7-7-8-8-8-8--10-10-|
A|-7---5-5-5-5\--1-1-1-1------3/--------7-7--5-5-5-5-7-7-7-7-8-8-8-8--10-10-|
E|-5----------------------1-1-1/--5-5-5-5-5--3-3-3-3-5-5-5-5-6-6-6-6---8--8-|
       ...      ...     ...    .....     ......................

E|--------------------------------------------------------------------------|
B|--------------------------------------------------------------------------|
G|-----------7-7\------3-3--------------------------7-7\------3-3-----------|
D|10-10------7-7\------3-3------3/--------7-7-------7-7\------3-3------3/---|
A|10-10--5-5-5-5\--1-1-1-1------3/--------7-7---5-5-5-5\--1-1-1-1------3/---|
E|8--8----------------------1-1-1/--5-5-5-5-5----------------------1-1-1/--5|
         ...      ...     ...    .....      ...      ...     ...     .


E|--------------------------------------------------------------------------|
B|--------------------------------------------------------------------------|
G|---------------7-7\------3-3----------------------------------------------|
D|-----7-7-------7-7\------3-3------3/--------7-7--5-5-5-5-7-7-7-7-8-8-8-8--|
A|-----7-7---5-5-5-5\--1-1-1-1------3/--------7-7--5-5-5-5-7-7-7-7-8-8-8-8--|
E|-5-5-5-5----------------------1-1-1/--5-5-5-5-5--3-3-3-3-5-5-5-5-6-6-6-6--|
  ....       ...       ...      ...     .....      ........................
E|--------------------------------------------------------------------------|
B|--------------------------------------------------------------------------|
G|----x--7-7-7-7\-3-3-3-3-------------------7-7-7-7\-3-3-3-3----------------|
D|8\--x--7-7-7-7\-3-3-3-3-3-3-3/-7-7-7-7-7--7-7-7-7\-3-3-3-3-3-3-3/-7-7-7-7-|
A|8\--x--5-5-5-5\-1-1-1-1-3-3-3/-7-7-7-7-7--5-5-5-5\-1-1-1-1-3-3-3/-7-7-7-7-|
E|6\----------------------1-1-1/-5-5-5-5-5-------------------1-1-1/-5-5-5-5-|
  .

E|------------------------------------------------------------------------|
B|------------------------------------------------------------------------|
G|---7-7-7-7\-3-3-3-3-------------------7-7-7-7\-3-3-3-3------------------|
D|7--7-7-7-7\-3-3-3-3-3-3-3/-7-7-7-7-7--7-7-7-7\-3-3-3-3-3-3-3/-7-7-7-7-7-|
A|7--5-5-5-5\-1-1-1-1-3-3-3/-7-7-7-7-7--5-5-5-5\-1-1-1-1-3-3-3/-7-7-7-7-7-|
E|5-------------------1-1-1/-5-5-5-5-5-------------------1-1-1/-5-5-5-5-5-|

(Bridge) 

E|---------------------------------------------------------|
B|-(she just plays up and down stroke pattern really fast)-|
G|-7-----3------5------7-----------------------------------| (These parts can be done
D|-7-----3------5------7-----5--3--2~~~~~~~~---------------|
A|-5-----1------3------5-----------------------------------| many ways so be creative)
E|---------------------------------------------------------|

(The whoa oh whoa part) 
E|---------------------------------------------------------------------------|
B|-7------7-7-7-7-7-7-7-7-3-3-3-3-3-3-3-3-5-5-5-5-5\--x--7-7-7-7\-3-3-3-3----|
G|-7------7-7-7-7-7-7-7-7-3-3-3-3-3-3-3-3-5-5-5-5-5\--x--7-7-7-7\-3-3-3-3----|
D|-5------5-5-5-5-5-5-5-5-1-1-1-1-1-1-1-1-3-3-3-3-3\--x--5-5-5-5\-1-1-1-1-3-3|
A|------------------------------------------------------------------------3-3|
E|------------------------------------------------------------------------1-1|

E|----------------------------------------------------------------------------|
B|----------------------------------------------------------------------------|
G|-------------------7-7-7-7\-3-3-3-3-------------------7-7-7-7\-3-3-3-3------|
D|-3-3-3/-7-7-7-7-7--7-7-7-7\-3-3-3-3-3-3-3/-7-7-7-7-7--7-7-7-7\-3-3-3-3-3-3-3|
A|-3-3-3/-7-7-7-7-7--5-5-5-5\-1-1-1-1-3-3-3/-7-7-7-7-7--5-5-5-5\-1-1-1-1-3-3-3|
E|-1-1-1/-5-5-5-5-5-------------------1-1-1/-5-5-5-5-5-------------------1-1-1|

E|-----------------------------------------------|
B|-----------------------------------------------|
G|-------------7-7-7-7\-3-3-3-3------------------|
D|/-7-7-7-7-7--7-7-7-7\-3-3-3-3-3-3-3/-7-7-7-7-7-|
A|/-7-7-7-7-7--5-5-5-5\-1-1-1-1-3-3-3/-7-7-7-7-7-|
E|/-5-5-5-5-5-------------------1-1-1/-5-5-5-5-5-|

(Outro)
E|--/13-12-10---------------------------------------------/13-12-10---------|
B|------------10~~~~10-10-10---8-10-13--10~~~~10-10-10~~~-----------10~~~~10|
G|--------------------------------------------------------------------------|
D|--------------------------------------------------------------------------|
A|--------------------------------------------------------------------------|
E|--------------------------------------------------------------------------|

E|------------------------------------------------------------------------------|
B|10-10---8-10-13-13~~~~~~~/----------------------------------------------------|
G|------------------------------------------------------------------------------|
D|----------------------------12------------------------------------------------|
A|----------------------------12--11/12~~~~~~~~~~~\|
E|----------------------------10------------------------------------------------|


************************************
| /   slide up
| \   slide down
| h   hammer-on
| p   pull-off
| ~   vibrato
| +   harmonic
| x   Mute note
| b   Bend
| pb  Pre-bend
| br  Bend release
| pbr Pre-bend release
| brb Bend release bend
P.M.  ............
************************************
Tap to rate this tab
 
# A B C D E F G H I J K L M N O P Q R S T U V W X Y Z