Song name
# A B C D E F G H I J K L M N O P Q R S T U V W X Y Z

Barlow Girl - Never Alone tab

Artist: Barlow Girl
Album: Barlow Girl
Song: Never Alone


   Really surprised I didn't see a better version of this tab before since its so 
easy but hey I'll put 
one up!! Great song by a great band and I know it's 1000000% perfect cause I saw 
them play it live four times,
 tabbed it by ear and confirmed it with a chord sheet!!! enjoy and PLEASE RATE AND 
COMMENT!!!! God Bless!



   Intro:
e  -------------------------------------------------|
B  -------------------------------------------------|
G  --9-9---------5-5--------------------------------|
D  --9-9--4-5-4--5-5--4-5-4--5-5--4-5-4-4/7-7-9\5---|x2
A  --7-7---------3-3---------5-5--------------------|
E  --------------------------3-3--------------------|



   verse 1: (with wah)
e  -----------------------|
B  -----------------------|
G  --9-9--5-5-------7-7---|
D  --9-9--5-5--5-5--7-7---|x4
A  --7-7--3-3--5-5--5-5---|
E  ------------3-3--------|



   Pre-Chorus:
e  ----------------------------------------------------|
B  ----------------------------------------------------|
G  --5-5-5-5-5-5-5-5-5/7-7-7---------------------------|
D  --5-5-5-5-5-5-5-5-5/7-7-7-5-5-5-5-5-5-5-5-5-5-5-5---|
A  --3-3-3-3-3-3-3-3-3/5-5-5-5-5-5-5-5-5-5-5-5-5-5-5---|
E  --------------------------3-3-3-3-3-3-3-3-3-3-3-3---|

e  -------------------------------------------------|
B  -------------------------------------------------|
G  --5-5-5-5-5-5-5-5-5-5-5-5------------------------|
D  --5-5-5-5-5-5-5-5-5-5-5-5-5-5-5-5/7/8/9-9-9-9----|
A  --3-3-3-3-3-3-3-3-3-3-3-3-5-5-5-5/7/8/9-9-9-9----|
E  --------------------------3-3-3-3/5/6/7-7-7-7----|



   Chorus:
e  ----------------------------------------------------------------------------|
B  ----------------------------------------------------------------------------|
G  --9-9-9-9-9-9-9-9-9-9-9-9-5-5-5-5-5-5-5-5-5\4-4-4---------------------------|
D  --9-9-9-9-9-9-9-9-9-9-9-9-5-5-5-5-5-5-5-5-5\4-4-4-7-7-7-7-7-7-7-7-7-7-7-7---|
A  --7-7-7-7-7-7-7-7-7-7-7-7-3-3-3-3-3-3-3-3-3\2-2-2-7-7-7-7-7-7-7-7-7-7-7-7---|
E  --------------------------------------------------5-5-5-5-5-5-5-5-5-5-5-5---|

e  ----------------------------|
B  ----------------------------|
G  ----------------------------|
D  --5-5-5-5/7/8/9-9-9-9-9-9---|x2
A  --5-5-5-5/7/8/9-9-9-9-9-9---|
E  --3-3-3-3/5/6/7-7-7-7-7-7---|



Repeat Intro x2 then piano break then palm mute this:

e  -------|
B  -------|
G  --x9x--|
D  --x9x--|(don't push the strings down at the nineth fret just
A  --x9x--| rest your finger there and rake and palm mute at the same time)
E  --x9x--|

 
Repeat Chorus x2
Repeat intro x2 and end on Em (g-9)
                              (d-9)
                              (a-7)
Tap to rate this tab
 
# A B C D E F G H I J K L M N O P Q R S T U V W X Y Z