Song name
# A B C D E F G H I J K L M N O P Q R S T U V W X Y Z

Barlow Girl - Psalm 73 My Gods Enough tab

Tabbed by: Michelle

Intro 
e|-/13-12-10-------------------------/13-12-10---------------------|
B|-----------10-10-10----10-13-10-10-----------10-10-10----10-13-17|
G|--------------------12--------------------------------12---------|
D|-----------------------------------------------------------------|
A|-----------------------------------------------------------------|
E|-----------------------------------------------------------------|

Verse 1 (I've had enough...the things that keep destroying me)
e|-10----10----10----10----8----8----12----12---|
B|----10----10----11----11---10---10----13----13|
G|----------------------------------------------|
D|----------------------------------------------|
A|----------------------------------------------|
E|----------------------------------------------| x4

D5     Bb5  F5   A5
 So sick of envying yeah
D5    Bb5      F5  A5      
 The lives of so many I see
D5   Bb5  F5    A5       G5        A5       Bb5 C5
 Somehow believing that they have what I need

Chorus
(No chord) D5 Bb5      F5 A5
My God's enough for me
               D5 F5       F5 (octave) C5
This world has nothing I need
              D5 F5        F5 A5
In this whole life I've seen
           D5 Bb5 F5 (ovctave) C5           [D5 E5 F5 Bb5 F5(octave lower) G5 A5 x2 or intro]
My God's enough,               enough for me

Verse 2
(Techinically no chord, B:10 10 10 10 B:14 14 14 14 e:10 10 10 e:13 13 13 13 13 13 14
I can't explain why           I suffer             though I   live for You
       B:13 13 13 13 e:10 10 10 15 15 15 15)
Those who           deny You
(No chord)
They have it better than I do
D5  Bb5     F5 A5
 Cover my eyes now
D5   Bb5      F5      A5
 So that my heart can finally see
D5    Bb5    F5  A5   G5       A5     Bb5 C5
 That in the end only You mean anything

Chorus

Bridge
D5
Who have I in heaven but You
D5
Nothing I desire but You
Bb5
My heart may fail but not You
C5
You are mine forever x2 D5

Chorus
Tap to rate this tab
 
# A B C D E F G H I J K L M N O P Q R S T U V W X Y Z