Song name
# A B C D E F G H I J K L M N O P Q R S T U V W X Y Z

Barlow Girl - Never Alone tab

HERES THE TAB  #NEVER ALONE by Barlow Girl# my acoustic version  ^^
INTRO
e---------------------0--------------------------------0----------------------------|
B-----------------------0--------------------------------1--------------------------|
G---------------0---------0-------------------0------------0------------------------|
D-------------2----------------------------2----------------------------------------|
A----------2---------------------------3--------------------------------------------|
E-----------------------------------------------------------------------------------|

e--------------3--------------------------------------------------------------------|
B----------------3------------------------------------------------------------------|
G-----------------0-----------------------------------------------------------------|
D---------0-------------------------------------------------------------------------|
A--------0--------------------------------------------------------------------------|
E------3----------------------------------------------------------------------------|



e----------------2----------------------------------------------------------------|
B-------------3----3--------------------------------------------------------------|
G----------2--------2-------------------------------------------------------------|
D--------0------------------------------------------------------------------------|
A-------------------------------------------------------------------repeat intro--| 2x
E---------------------------------------------------------------------------------|

Verse 1
                  I waited for you...
e-------------------0---------------------0---------------------------|
B---------------------0---------------------1-------------------------|
G---------------0------0-------------0--------0-----------------------|
D-------------2--------------------2----------------------------------|
A----------2---------------------3------------------------------------|
E---------------------------------------------------------------------|

e--------------3------------------------------------------------------|
B----------------3----------------------------------------------------|
G-----------------0---------------------------------------------------|
D---------0-----------------------------------------------------------|
A--------0------------------------------------------------------------|
E------3--------------------------------------------------------------|



e----------------2----------------------------------------------------------|
B-------------3----3--------------------------------------------------------|
G----------2--------2-------------------------------------------------------|
D--------0------------------------------------------------------------------|
A---------------------------------------------------------------------------|
E------------------------------------------------------------------ REPEAT--| 4x

         You told me to call
e-------------0-----------------------------------|
B---------------1---------------------------------|
G---------0------0--------------------------------|
D-------2-----------------------------------------|
A-----3-------------------------------------------|
E-------------------------------------------------|

e-----------3----------------------3------------------0------------|
B------------3------------------3---3-------------------0----------|
G--------------0--------------2-------------------0-------0--------|
D-------0-------------------0-------------------2------------------|
A-----0---------------------------------------2--------------------|
E----3-------------------------------------------------------------|

      and though i haven't
e-------------0-----------------------------------|
B---------------1---------------------------------|
G---------0------0--------------------------------|
D-------2-----------------------------------------|
A-----3-------------------------------------------|
E-------------------------------------------------|

e-----------3----------------------3--------------------0----------|
B------------3------------------3---3------------------------------|
G--------------0--------------2---------------------0--------------|
D-------0-------------------0--------------------2-----------------|
A-----0----------------------------------------2-------------------|
E----3-------------------------------------------------------------|

Chorus:
e---------------------0---------------------------0----------------------3-------------|
B-----------------------0---------------------------1---------------------3------------|
G---------------0---------0------------------0--------0---------------------0----------|
D-------------2---------------------------2------------------------0-------------------|
A----------2---------------------------3-------------------------0 --------------------|
E---------------------------------------------------------------3----------------------|


e-------------------2-------------------------------------------------|
B---------------3-----3-----------------------------------------------|
G-----------2-----------2---------------------------------------------|
D--------0------------------------------------------------------------|
A---------------------------------------------------------------------|( repeat chorus 4x)
E---------------------------------------------------------------------|

[STRUMMING PART]    x: PALM MUTE
e----------------------------------------|
B----------------------------------------|
G-----9-----11-/-12--\11------5XXX-------|
D-----9----------------------------------|
A-----7-----9-/--10--\-9------3XXX-------|
E----------------------------------------|


e-------------------------------------|
B-------------------------------------|
G-------------------------------------|
D-------------5X---------------4X-----|
A-----X-------5X---------------4X-----|
E----0X-------3X------0X-------2X-----|

          And though I can
e-------------------------------------|
B-------------------------------------|
G-------------------------------------|
D----9X-------------------------------|
A----7X-------------------------------|
E-------------------------------------|
           not see You
e-----------------------------------------------|
B-----------------------------------------------|
G-----------------------------------------------|
D--------5X-------------5XXX-------4X-----------|
A--0X----3X-------------5XXX-------4X-----------|
E--------------0X-------3XXX-------2X-----------|


            We cannot separate                                          I'll trust the unseen
e-----------------------------------------------------------------------------------|
B-----------------------------------------------------------------------------------|
G-----------------------------------------------------------------------------------|
D------5X---------------------------------------------------------------------------|
A------3X----------------------------------------------5X----------4X----------10X--|
E----------------------------------------0X------------3X-----0x---2X-----------8X--|


Chorus:
STRUMMING PART  X: Palm Mute
e------------------------------------------------------|
B------------------------------------------------------|
G------------------------------------------------------|
D-------9-----5X---------------------------------------|
A-------7-----3X-------5X------4X----------------------|REPEAT CHORUS 2x
E----------------------3X------2X----------------------|

Last part \ / : slides
e------------------------------------------------------------------------|
B------------------------------------------------------------------------|
G--9--11-/-12--\11--\5---11--\-12--11--\12/11-\12/10-\-14\16-------------|
D------------------------------------------------------------------------|
A--7--9-/--10--\-9--\3---9---\-10--9---\10/9--\10/9--\-12\14-------------|
E------------------------------------------------------------------------|


hope this tab will help
message me at youtube for questions in my TAB
http://www.youtube.com/watch?feature=player_embedded&v=__NaAajJwsw
-ALEXIS
Tap to rate this tab
# A B C D E F G H I J K L M N O P Q R S T U V W X Y Z