Song name
# A B C D E F G H I J K L M N O P Q R S T U V W X Y Z

Barlowgirl - Never Alone tab

-------------------------------------------------------------------------------
			     Never Alone - BarlowGirl
-------------------------------------------------------------------------------
You can figure out the strumming yourself :)

Tuning:Standard

Verse

e|---------------------------------------------------------------------------|
B|---------------------------------------------------------------------------|
G|------------5---------------7----------------------------------------------|
D|----2-------5-------5-------7----------------------------------------------|
A|----2-------3-------5-------5----------------------------------------------|
E|----0---------------3------------------------------------------------------|

Verse Pt 2

e|------------------------------------------------------------------------------|
B|------------------------------------------------------------------------------|
G|----5---------------5---------------7-----------------------------------------|
D|----5-------5-------5-------5-------7-----------------------------------------|
A|----3-------5-------3-------5-------5-----------------------------------------|
E|------------3---------------3-------------------------------------------------|

Chorus

e|-------------------------------------------------------------------------------|
B|-------------------------------------------------------------------------------|
G|------------5---------------7---------------5-----------------------4----------|
D|----2-------5-------5-------7-------2-------5-------7-------5-------4----------|
A|----2-------3-------5-------5-------2-------3-------7-------5-------2----------|
E|----0---------------3---------------0---------------5-------3------------------|

Chorus Pt2

e|------------------------------------------------------------------------------|
B|------------------------------------------------------------------------------|
G|------------5---------------7-------5---------------7-------------------------|
D|----2-------5-------5-------7-------5-------5-------7-------------------------|
A|----2-------3-------5-------5-------3-------5-------5-------------------------|
E|----0---------------3-----------------------3---------------------------------|

Verse

Chorus


Bridge

e|-------------------------------------------------------------------------------|
B|-------------------------------------------------------------------------------|
G|----5----------------5----------------4----------------------------------------|
D|----5--------2-------5-------5--------4----------------------------------------|
A|----3--------2-------3-------5--------2----------------------------------------|
E|-------------0---------------3-------------------------------------------------|


Chorus

Enjoy :)
Tap to rate this tab
 
# A B C D E F G H I J K L M N O P Q R S T U V W X Y Z