Song name
# A B C D E F G H I J K L M N O P Q R S T U V W X Y Z

Barnes Jimmy - No Second Prize tab

Highlighted       Show chord diagrams
This is my second tab, hope its easy to understand,  this was Barnsey's first solo hit, 
hope to have the solo comign soon

Chords are

G, Em, C(power CHords) and D(major


The Following Phrase is played throughout the song except the pre chorus.
                                                       Let Ring
                                                       _________
e|-----------------------------------------------------2--------3p2--3p2-----|
B|-----------------------------------------------------3--------3---3--------|
G|------------------------------------5-5-5-5-5-5-5-5--2--------2---2--------|
D|--5-5-5-5-5-5-5-5--2-2-2-2-2-2-2-2--5-5-5-5-5-5-5-5------------------------|
A|--5-5-5-5-5-5-5-5--2-2-2-2-2-2-2-2--3-3-3-3-3-3-3-3------------------------|
E|--3-3-3-3-3-3-3-3--0-0-0-0-0-0-0-0-----------------------------------------|

   Pre Chorus (not palm muted)

e|--------------------2-2-2-2-2-2-2-2-------------------2-2-2-2-2-2-2-3------|
B|--------------------3-3-3-3-3-3-3-3-------------------3-3-3-3-3-3-3-3------|
G|---5-5-5-5-5-5-5-5--2-2-2-2-2-2-2-2--5-5-5-5-5-5-5-5--2-2-2-2-2-2-2-2------|
D|---5-5-5-5-5-5-5-5-------------------5-5-5-5-5-5-5-5-----------------------|
A|---3-3-3-3-3-3-3-3-------------------3-3-3-3-3-3-3-3-----------------------|
E|---------------------------------------------------------------------------|
Tap to rate this tab
# A B C D E F G H I J K L M N O P Q R S T U V W X Y Z