Guitaretab - guitar tabs
Song name
# A B C D E F G H I J K L M N O P Q R S T U V W X Y Z

Barney Bentall - Life Could Be Worse tab

Life Could Be Worse					Barney Bentall

C/// C/// F///G///

Intro Riff
  C         C         C         C	   C
E----------0---------0---------0--------0-----------------------------|
B-1-1-1-3----1-1-1-3---1-1-1-3---1-1-1-3------------------------------|
G---------------------------------------------------------------------|
D---------------------------------------------------------------------|
A---------------------------------------------------------------------|
E---------------------------------------------------------------------|

  C         C         C         F  G	 C
E----------0---------0---------0-1-0----------------------------------|
B-1-1-1-3----1-1-1-3---1-1-1-3-------3-0-1----------------------------|
G---------------------------------------------------------------------|
D---------------------------------------------------------------------|
A---------------------------------------------------------------------|
E---------------------------------------------------------------------|
[ Tab from: http://www.guitaretab.com/b/barney-bentall/91133.html ]
1.	[C}Pa and Ma and Sis and Jimmy
Went [F]out for a drive and some [G]drunken lawyer [C]hit Ďem
Every[F]body but the [G]lawyer [C]died.
[C]Pa had lots of debts so I went and sold the [F]farm
Now Iím living in a [G]tenement and Iím [C]starviní
Iíve got [F]rat bites [G]on my [C]arms.

Chorus
	Yeah, but [G]life could be worse, things could get bad
	[C]Iím lucky I guess to re[F]member what I [G]had, ohh [C]

(Guitar riff)

2.	[C]Waiting in the line one day for a [F]bit of soup and [G]bread
I met miss [C]Alicia and [F]this is [G]what she [C]said
ďKeep your chin up Bobby, [F]smile when you talkĒ
and [G]then she went [C]away now,
she [F]went away with [G]País gold [C]watch.

Chorus 2
	Yeah, but [G]life could be worse, things could get bad
	[C]Iím lucky I guess to re[F]member what I [G]had, ohh [C]
	[C]Iím lucky I guess to re[F]member [G]what I [C]had.

(Guitar riff)

3.	[C]Now Iím working out on Davie Street
For a [F]man called Eddie [G]Bones, I give him half of [C]what I make
And [F]he leaves [G]me a[C]lone.
I donít deal no rough trade, like the [F]corner cowboys [G]do
Iím a temporary [C]resident of [F]Lonely [G]Aven[C]ue.

Chorus 3
	Yeah, but [G]life could be worse, things could get bad
	Life could be worse, life could be worse!
	[C]Iím lucky I guess to re[F]member what I [G]had, ohh [C]
	[C]Iím lucky I guess to re[F]member what I [G]had, ohh [C]
	[C]Iím lucky I guess to re[F]member [G]what I [C]had.

Guitar riff to fade
Fade
Related for Life Could Be Worse tab