Guitaretab - guitar tabs
Song name
# A B C D E F G H I J K L M N O P Q R S T U V W X Y Z

Barnyard Ballers - Sillicone City tab

Sillicone City
from the album "Punkobilly Invasion"


i am 75% sure this is that this is the intro to this song.

e-------------------|
b-------------------|
g-3-4-5-4---3-4-5-4-|
d-------------------|     play this 4x
a-------------------|
e-------------------|

[ Tab from: http://www.guitaretab.com/b/barnyard-ballers/105495.html ]
e-------------------------------|
b----------8--5------------7--4-|
g-3-4-5-4---------3-4-5-4-------|
d-------------------------------|   play once
a-------------------------------|
e-------------------------------|


e---------------------------------------|
b----------6--3---9--6---5--2--3--0---1-|
g-3-4-5-4-----------------------------2-|
d-------------------------------------2-|       play once
a---------------------------------------|
e---------------------------------------|

tabbed by ty wright