Song name
# A B C D E F G H I J K L M N O P Q R S T U V W X Y Z

Baroness - Wailing Wintry Wind tab

Help us improve GuitareTab! Take a short survey!
Baroness
Red Album
Wailing Wintry Wind

Awesome album by an awesome band.  I wish someone would tab some more of their songs.

Starts at 2:23

|-------------------------------------------------------------|
|------2-1-2----------2-1-------------------------------------|
|-------------------1----------------4-5-4---------3-5-3------|
|----3-------3----2-------2h3p2----6-------6-----5-------5----|
|--1-----------------------------4-------------4--------------|
|-------------------------------------------------------------|

|-------------------------------------------------------------------|
|------2-1-2----------2-1----------------------------------2/4/2----|
|-------------------1----------------4-5-4---------3-5-3---3/5/3----|
|----3-------3----2-------2h3p2----6-------6-----5------------------|
|--1-----------------------------4-------------4--------------------|
|-------------------------------------------------------------------|

|-------------------------------------------------------------|
|------2-1-2--------------------------------------------------|
|---------------------6-8----------8---8----------3-5-3-------|
|----3-------3------8------------10--11--10-----3-------3-----|
|--1--------------6--------6-8-9--------------4---------------|
|-------------------------------------------------------------|


That's all i've got so far.  

pull off - p
hammer on - h
slide - /
Related for Wailing Wintry Wind tab