Song name
# A B C D E F G H I J K L M N O P Q R S T U V W X Y Z

Baroness - Teeth Of A Cogwheel tab

Tabbed By:  Jimmy10

Baroness
Red Album
Teeth of a cogwheel

Guitar 1
|---------------------------------------------------------------------|
|---------------------------------------------------------------------|
|5-3-5--5-3-5--5-3-5--3-1-3--3-1-3--3-1-3--1-0-1--1-0-1--1-0-1----5-3-|
|---------------------------------------------------------------3-----|
|---------------------------------------------------------------------|
|---------------------------------------------------------------------|


Guitar 2
|---------------------------------------------------------------------|
|-----------------------------------------------------------------4-6-|
|---------------------------------------------------------------------|
|3-1-3--3-1-3--3-1-3--3-1-3--3-1-3--3-1-3--3-1-3--3-1-3--3-1-3--3-----|
|---------------------------------------------------------------------|
|---------------------------------------------------------------------|

Someone please tab some more baroness songs!
Tap to rate this tab
# A B C D E F G H I J K L M N O P Q R S T U V W X Y Z