Song name
# A B C D E F G H I J K L M N O P Q R S T U V W X Y Z

Baroness - Grad tab

-------------------------------------------------------------------------------
			     GRAD - BARONESS
-------------------------------------------------------------------------------
Tabbed by:Thomas Fekete

Saw Baroness last night and was inspired to figure this song out. It's just the main 
sorry if I butchered it!

Enjoy!

Tuning:A# F A# D# G C

First Riff, the time changes a lot, but if you know the song, you'll get it quick!

e|---------------------------------------------------------------------------|
B|---------------------------------------------------------------------------|
G|---------------------------------------------------------------------------|
D|--2h4---2-2h4p2p0------------------5---------------------------------------|
A|--0-------------------2/5p0-2/5p0--5---------------------------------------|
E|--0---------------0----------------5---------------------------------------|

Eventually does a little one of these...then back into the main riff

e|---------------------------------------------------------------------------|
B|---------------------------------------------------------------------------|
G|-------------2-------------------------------------------------------------|
D|---0--0--2h4---------------------------------------------------------------|
A|---0--0--0-----------------------------------------------------------------|
E|---0--0--------------------------------------------------------------------|

| /  slide up
| \  slide down
| h  hammer-on
| p  pull-off
| ~  vibrato
| +  harmonic
| x  Mute note
==============================================================================
Tap to rate this tab
# A B C D E F G H I J K L M N O P Q R S T U V W X Y Z