Song name
# A B C D E F G H I J K L M N O P Q R S T U V W X Y Z

Baroness - Ogeechee Hymnal tab

Ogeechee Hymnal

As recorded by Baroness

(From the 2009 Blue Album)

Transcribed by ScreamOfSilence


Tuning: (C# Ab Db Gb Bb Eb)

|------------------------------------------------------------|
|------------------------------------------------------------|
|-9~~----9-11--11H13~~-----18-16-16h18~~--------18-20-21~~---|
|------------------------------------------------------------|
|------------------------------------------------------------|
|------------------------------------------------------------|
|
|------------------------------------------------------------|
|------------------------------------------------------------|
|------------------------------------------------------------|
|--------------------------11-9-9h11-13-11-10--11-13-14~~---|
|-7~~----7-99h11-11-9-7-------------------------------------|
|---------------------------------------------------------0~~|



|-------------------------------------------------------------------|
|-------------------------------------------------------------------|
|-16~~-16-16-16-15-15--15-16-16-13-13-13-15-15-13-11-13-11-11-10---|
|-------------------------------------------------------------------|
|-------------------------------------------------------------------|
|---------------------------------------------------------------15/-|
|
|-------------------------------------------------------------------|
|-------------------------------------------------------------------|
|-------------------------------------------------------------------|
|-10~~-10-10-10--99---9--10-10--7--7---7--9-9---75--7--5--5--4----|
|-------------------------------------------------------------------|
|---------------------------------------------------------------15/-|




|------------------------------------------------------------------|
|------------------------------------------------------------------|
|-9~~--9-8----------------18-16-16h18~~--------18-20-21~~----------|
|----------9~~-----------------------------------------------------|
|------------------------------------------------------------------|
|------------------------------------------------------------------|
|
|------------------------------------------------------------------|
|------------------------------------------------------------------|
|------------------------------------------------------------------|
|--------------------------11-9-9h11-13-11-10--11-13-14~~---------|
|-7~~--7-6-------11-9-7--------------------------------------------|
|----------9~~--------------------------------------------------0~~|
|
|------------------------------------------------------------------|
|------------------------------------------------------------------|
|------------------------------------------------------------------|
|------------------------------------------------------------------|
|----------3----------------1-31h3---------------4--67~~---------|
|-3~~-3-2-------------------------------------------------------0~~|


|-------------------------------------------------------------------|
|-------------------------------------------------------------------|
|-16~~-16-16-16-15-15--15-16-16-13-13-13-15-15-13-11-13-11-11-10---|
|-------------------------------------------------------------------|
|-------------------------------------------------------------------|
|---------------------------------------------------------------15/-|
|
|-------------------------------------------------------------------|
|-------------------------------------------------------------------|
|-------------------------------------------------------------------|
|-10~~-10-10-10--99---9--10-10--7--7---7--9-9---75--7--5--5--4----|
|-------------------------------------------------------------------|
|---------------------------------------------------------------15/-|
|
|-------------------------------------------------------------------|
|-------------------------------------------------------------------|
|-------------------------------------------------------------------|
|-------------------------------------------------------------------|
|-------------------------------------------------------------------|
|-10~~-10-10-10--99---9--10-10--7--7---7--9-9---75--7--5--5--4----|




|------------------------------------------------------------------|
|------------------------------------------------------------------|
|-9~~--9-8----------------18-16-16h18~~--------18-20-21~~----------|
|----------9~~-----------------------------------------------------|
|------------------------------------------------------------------|
|------------------------------------------------------------------|
|
|------------------------------------------------------------------|
|------------------------------------------------------------------|
|------------------------------------------------------------------|
|--------------------------11-9-9h11-13-11-10--11-13-14~~---------|
|-7~~--7-6-------11-9-7--------------------------------------------|
|----------9~~--------------------------------------------------0~~|
|
|------------------------------------------------------------------|
|------------------------------------------------------------------|
|------------------------------------------------------------------|
|------------------------------------------------------------------|
|----------3----------------1-31h3---------------4--67~~---------|
|-3~~-3-2-------------------------------------------------------0~~|


|-------------------------------------------------------------------|
|-------------------------------------------------------------------|
|-16~~-16-16-16-15-15--15-16-16-13-13-13-15-15-13-11-13-11-11-10---|
|-------------------------------------------------------------------|
|-------------------------------------------------------------------|
|---------------------------------------------------------------15/-|
|
|-------------------------------------------------------------------|
|-------------------------------------------------------------------|
|-------------------------------------------------------------------|
|-10~~-10-10-10--99---9--10-10--7--7---7--9-9---75--7--5--5--4----|
|-------------------------------------------------------------------|
|---------------------------------------------------------------15/-|
|
|-------------------------------------------------------------------|
|-------------------------------------------------------------------|
|-------------------------------------------------------------------|
|-------------------------------------------------------------------|
|-------------------------------------------------------------------|
|-10~~-10-10-10--99---9--10-10--7--7---7--9-9---75--7--5--5--4----|




|-----|
|-----|
|-9~~-|
|-----|
|-----|
|-----|
|
|-----|
|-----|
|-----|
|-----|
|-7~~-|
|-----|








|--------------------------------------------------------------------------|
|--------------------------------------------------------------------------|
|-15~-11~--16~~-15~~-11~~-10~~-11~~-10~~-15~~-10~~--16~~--15~~11~~-10~~-8~~|
|--------------------------------------------------------------------------|
|-16~--9~--17~~-16~~--9~~--8~~--9~~-8~~--16~~--8~~--17~~--16~~-9~~--8~~-6~~|
|--------------------------------------------------------------------------|





Have fun.
Tap to rate this tab
 
# A B C D E F G H I J K L M N O P Q R S T U V W X Y Z