Song name
# A B C D E F G H I J K L M N O P Q R S T U V W X Y Z

Baroness - Jake Leg tab

BARONESS  -  JAKE LEG (tabbed by Johnny Zeus johnnyzeus@web.de)

My first tab! Have fun with both guitars :) Mail me if anything's wrong!

GUITAR 1 (right):

[0:00-0:12]

e|------|----------------|----------------|----------------|----------------|
B|----6-|5-------------3-|1-----------5h6p|5-------3h5p3s1-|--------------6-|
G|----5-|5-------------0-|0-----------5---|5---------------|0-------------5-|
D|------|----------------|----------------|----------------|----------------|
A|------|----------------|----------------|----------------|----------------|
E|------|----------------|----------------|----------------|----------------|

e|----------------|----------------|----------------|----------------|
B|5-------------3-|1-----------5h6p|5-------3h5p3s1-|----------------|
G|5-------------0-|0-----------5---|5---------------|0---------------|
D|----------------|----------------|----------------|----------------|
A|----------------|----------------|----------------|----------------|
E|----------------|----------------|----------------|----------------|


[0:13-0:37]


e|----------------|----------------|------------------|------------------|
B|6p5---8p6---9---|8---9-6p4-6p5---|6p5---5-----------|------------------|
G|---0------0---0-|----------------|----6-----5p6-----|-5------6-5---9---|
D|----------------|----------------|----------------8-|---8--------------|
A|----------------|----------------|------------------|------6-----6---6-|
E|----------------|----------------|------------------|------------------|

e|----------------|----------------|----------------|----------------|
B|----------------|6p5---8p6---9---|8---9-6h8p6s5---|6p5---5---------|
G|8----9---6h8-5--|---0-----0----0-|----------------|----6-----5p6---|
D|----------------|----------------|----------------|--------------8-|
A|----------------|----------------|----------------|----------------|
E|----------------|----------------|----------------|----------------|

e|------------------|----------------|----------------|----------------|
B|------------------|----------------|6p5---8p6---8b9r|8---9-6h8p6s5---|
G|-5------6-5---9---|8----9---6h8-5--|---0-----0------|----------------|
D|---8--------------|----------------|----------------|----------------|
A|------6-----6---6-|----------------|----------------|----------------|
E|------------------|----------------|----------------|----------------|

e|----------------|---------------------|----------------|----------------|
B|6p5---5---------|---------------------|----------------|6p5---8p6---9---|
G|----6-----5p6---|55-----6655----99----|8----9---6h8-5--|---0------0---0-|
D|--------------8-|--88-----------------|----------------|----------------|
A|----------------|-----66-----66-----66|----------------|----------------|
E|----------------|---------------------|----------------|----------------|


e|888888888------8|
B|999999999------8|
G|---------------8|
D|--------------10|
A|--------------10|
E|---------------8|

[0:38-0:44]

e|6-----6-4-----4-|----------------|----------------|---------------|
B|6-----6-4-----4-|----------------|5~~~~~~~~~~~~~~~|---------------|
G|6-----6-5-----5-|8-----8-10----10|5~~~~~~~~~~~~~~~|--------(5)----|
D|8-----8-6-----6-|8-----8-10----10|5~~~~~~~~~~~~~~~|5-------(5)----|
A|8-----8-6-----6-|6-----6-8-----8-|3---------------|5--------------|
E|6-----6-4-----4-|----------------|----------------|3--------------|

[0:44-1:00]
(Rhythm Guitar)

2x
e---|----------------|----------------|----------------|--------------|
B---|----------------|----------------|----------------|--------------|
G-5-|5-----5-5-----5-|5-----5-5-----6-|6-----6-6-----6-|6-----6-6-----|
D-5-|5-----5-5-----5-|5-----5-5-----5-|5-----5-5-----5-|5-----5-5-----|
A-3-|3-----3-3-----3-|3-----3-3-----4-|4-----4-4-----4-|4-----4-4-----|
E---|----------------|----------------|----------------|--------------|

then:
e---|----------------|-------------|
B---|----------------|-------------|
G-5-|5-----5-5-----5-|5-----5-5----|
D-5-|5-----5-5-----5-|5-----5-5----|
A-3-|3-----3-3-----3-|3-----3-3----|
E---|----------------|-------------|

Solo
e|-------|-------------------------8|---------------------------------------|
B|-11b13r|11----8h11p|8----------8--|11b13~r11-8-11-8---------------10------|
G|-------|-----------|------10b12---|----------------10b12r10p8-----10-8----|
D|-------|-----------|--------------|--------------------------10-8---------|
A|-------|-----------|--------------|---------------------------------------|
E|-------|-----------|--------------|---------------------------------------|

[1:00-1:53]

e---|-----------------|----------------|
B---|-----------------|----------------|
G-10|10-9-9-8-8-7-7-6-|6-5-5-4-4-3-3-5-|
D-10|10-9-9-8-8-7-7-6-|6-5-5-4-4-3-3-5-|
A--8|-8-7-7-6-6-5-5-4-|4-3-3-2-2-1-1-3-|
E---|-----------------|----------------|

 Jake leg! ....
e|----------------|----------------|----------------|----------------|
B|----------------|----------------|----------------|----------------|
G|5-----5-5-----5-|5-----5-5-----6-|6-----6-6-------|--------------5-|
D|5-----5-5-----5-|5-----5-5-----5-|5-----5-5-----5-|5-----5-5-----5-|
A|3-----3-3-----3-|3-----3-3-----4-|4-------------5-|5-----5-5-----3-|
E|----------------|----------------|------6-6-----3-|3-----3-3-------|

e|----------------|----------------|-------------------|----------------|
B|----------------|----------------|-------------------|----------------|
G|5-----5-5-----5-|5-----5-5-------|-------------------|--------------5-|
D|5-----5-5-----5-|5-----5-5-----10|10-10-10-8-8-8-8-6-|6-6-6-4-4-4-4-5-|
A|3-----3-3-----3-|3-----3-3-----8-|8--7--7--6-6-5-5-4-|4-3-3-2-2-1-1-3-|
E|----------------|----------------|-------------------|----------------|

e|----------------|----------------|----------------|----------------|
B|----------------|----------------|----------------|----------------|
G|5-----5-5-----5-|5-----5-5-----6-|6-----6-6-------|--------------5-|
D|5-----5-5-----5-|5-----5-5-----5-|5-----5-5-----5-|5-----5-5-----5-|
A|3-----3-3-----3-|3-----3-3-----4-|4-------------5-|5-----5-5-----3-|
E|----------------|----------------|------6-6-----3-|3-----3-3-------|


e|----------------|----------------|-------------------|----------------|
B|----------------|----------------|-------------------|----------------|
G|5-----5-5-----5-|5-----5-5-------|-------------------|--------------5-|
D|5-----5-5-----5-|5-----5-5-------|-----------------6-|6-6-6-4-4-4-4-5-|
A|3-----3-3-----3-|3-----3-3-----8-|8--8--8--6-6-6-6-4-|4-3-3-2-2-1-1-3-|
E|----------------|--------------6-|6--5--5--4-4-3-3---|----------------|

e|----------------|----------------|----------------|----------------|
B|----------------|----------------|----------------|----------------|
G|5-----5-5-----5-|5-----5-5-----6-|6-----6-6-------|--------------5-|
D|5-----5-5-----5-|5-----5-5-----5-|5-----5-5-----5-|5-----5-5-----5-|
A|3-----3-3-----3-|3-----3-3-----4-|4-------------5-|5-----5-5-----3-|
E|----------------|----------------|------6-6-----3-|3-----3-3-------|

e|----------------|----------------|-------------------|----------------|
B|----------------|----------------|-------------------|----------------|
G|5-----5-5-----5-|5-----5-5-------|-------------------|--------------5-|
D|5-----5-5-----5-|5-----5-5-----10|10-10-10-8-8-8-8-6-|6-6-6-4-4-4-4-5-|
A|3-----3-3-----3-|3-----3-3-----8-|8--7--7--6-6-5-5-4-|4-3-3-2-2-1-1-3-|
E|----------------|----------------|-------------------|----------------|

e|----------------|----------------|----------------|-------|
B|----------------|--------------6-|6-5-5-4-4-3-3-2-|2-1-1--|
G|5-----5-5-----5-|5-----5-5-------|----------------|------0|
D|5-----5-5-----5-|5-----5-5-------|----------------|-------|
A|3-----3-3-----3-|3-----3-3-------|----------------|-------|
E|----------------|----------------|----------------|-------|

e|----------------|----------------|
B|----------------|----------------|
G|4b5~4b5~4b5~4b5~|4b5~4b5~4b5~4b5~|
D|----------------|----------------|
A|----------------|----------------|
E|----------------|----------------|

[1:53-2:13]

e|----------------|----------------|------------------|------------------|
B|6p5---8p6---9---|8---9-6h8p6s5---|6p5---5-----------|------------------|
G|---0------0---0-|----------------|----6-----5p6-----|-5------6-5---9---|
D|----------------|----------------|----------------8-|---8--------------|
A|----------------|----------------|------------------|------6-----6---6-|
E|----------------|----------------|------------------|------------------|


e|----------------|----------------|-------------------|----------------|
B|----------------|6p5---8p6---6---|5---8h10p8s6-8p6s5-|6p5---5---------|
G|8----9---6h8-5--|---0-----0------|-------------------|----6-----5p6---|
D|----------------|----------------|-------------------|--------------8-|
A|----------------|----------------|-------------------|----------------|
E|----------------|----------------|-------------------|----------------|

e|---------------------|----------------|----------------|888888888------8|
B|---------------------|----------------|6p5---8p6---9---|999999999------8|
G|55-----6655----99----|8----9---6h8-5--|---0------0---0-|---------------8|
D|--88-----------------|----------------|----------------|--------------10|
A|-----66-----66-----66|----------------|----------------|--------------10|
E|---------------------|----------------|----------------|---------------8|

e|6-----6-4-----4-|----------------|
B|6-----6-4-----4-|----------------|
G|6-----6-5-----5-|12~~~~~~~~----5-|
D|8-----8-6-----6-|13~~~~~~~~----5-|
A|8-----8-6-----6-|13~~~~~~~~----3-|
E|6-----6-4-----4-|11--------------|

[2:13-3:07]

Lady! ....
e|----------------|----------------|----------------|----------------|
B|----------------|----------------|----------------|----------------|
G|5-----5-5-----5-|5-----5-5-----6-|6-----6-6-------|--------------5-|
D|5-----5-5-----5-|5-----5-5-----5-|5-----5-5-----5-|5-----5-5-----5-|
A|3-----3-3-----3-|3-----3-3-----4-|4-------------5-|5-----5-5-----3-|
E|----------------|----------------|------6-6-----3-|3-----3-3-------|

e|----------------|----------------|-------------------|----------------|
B|----------------|----------------|-------------------|----------------|
G|5-----5-5-----5-|5-----5-5-------|-------------------|--------------5-|
D|5-----5-5-----5-|5-----5-5-----10|10-10-10-8-8-8-8-6-|6-6-6-4-4-4-4-5-|
A|3-----3-3-----3-|3-----3-3-----8-|8--7--7--6-6-5-5-4-|4-3-3-2-2-1-1-3-|
E|----------------|----------------|-------------------|----------------|

e|----------------|----------------|----------------|----------------|
B|----------------|----------------|----------------|----------------|
G|5-----5-5-----5-|5-----5-5-----6-|6-----6-6-------|--------------5-|
D|5-----5-5-----5-|5-----5-5-----5-|5-----5-5-----5-|5-----5-5-----5-|
A|3-----3-3-----3-|3-----3-3-----4-|4-------------5-|5-----5-5-----3-|
E|----------------|----------------|------6-6-----3-|3-----3-3-------|


e|----------------|----------------|-------------------|----------------|
B|----------------|----------------|-------------------|----------------|
G|5-----5-5-----5-|5-----5-5-------|-------------------|--------------5-|
D|5-----5-5-----5-|5-----5-5-------|-----------------6-|6-6-6-4-4-4-4-5-|
A|3-----3-3-----3-|3-----3-3-----8-|8--8--8--6-6-6-6-4-|4-3-3-2-2-1-1-3-|
E|----------------|--------------6-|6--5--5--4-4-3-3---|----------------|

e|----------------|----------------|----------------|----------------|
B|----------------|----------------|----------------|----------------|
G|5-----5-5-----5-|5-----5-5-----6-|6-----6-6-------|--------------5-|
D|5-----5-5-----5-|5-----5-5-----5-|5-----5-5-----5-|5-----5-5-----5-|
A|3-----3-3-----3-|3-----3-3-----4-|4-------------5-|5-----5-5-----3-|
E|----------------|----------------|------6-6-----3-|3-----3-3-------|

e|----------------|----------------|-------------------|----------------|
B|----------------|----------------|-------------------|----------------|
G|5-----5-5-----5-|5-----5-5-------|-------------------|--------------5-|
D|5-----5-5-----5-|5-----5-5-----10|10-10-10-8-8-8-8-6-|6-6-6-4-4-4-4-5-|
A|3-----3-3-----3-|3-----3-3-----8-|8--7--7--6-6-5-5-4-|4-3-3-2-2-1-1-3-|
E|----------------|----------------|-------------------|----------------|

e|----------------|----------------|----------------|-------|
B|----------------|--------------6-|6-5-5-4-4-3-3-2-|2-1-1--|
G|5-----5-5-----5-|5-----5-5-------|----------------|------0|
D|5-----5-5-----5-|5-----5-5-------|----------------|-------|
A|3-----3-3-----3-|3-----3-3-------|----------------|-------|
E|----------------|----------------|----------------|-------|

e|0h1-1s3-3s4|-4s6-6s11-11s|8-8-8-8-8-8-8-8-|8-8-8-8-8-8-8-8-|
B|0h1-1s3-3s4|-4s6-6s11-11s|8-8-8-8-8-8-8-8-|8-8-8-8-8-8-8-8-|
G|---0---0---|0---0----0---|----------------|----------------|
D|-----------|-------------|----------------|----------------|
A|-----------|-------------|----------------|----------------|
E|-----------|-------------|----------------|----------------|

[3:07-3:28]

e|8h9p8s6---------|----------------|8h9p8s6--------3--|--let-ring--------|
B|---------8-6-5--|--6-9-----6-----|----------8-6--5--|--let-ring--------|
G|----------------|------5h6-------|---------------0--|--let-ring--------|
D|----------------|------------6p5-|------------------|------------------|
A|----------------|----------------|------------------|------------------|
E|----------------|----------------|------------------|------------------|

e|----------------|----------------|------------------|-----------------|
B|----------------|----------------|------------------|-----------------|
G|5-------------6-|----------------|-5--------------6-|-----------------|
D|5-------------5-|----------------|-5--------------5-|-----------------|
A|3---3-3-3-3-3-4-|--4-4-4-4-4-4-4-|-3----3-3-3-3-3-4-|---4-4-4-4-4-4-4-|
E|----------------|----------------|------------------|-----------------|

e|----------------|----------------|--------------3h4-|-3---------------|
B|----------------|----------------|------------------|---6-4-3---------|
G|5-5-5-5-5-5-5-6-|6-6-6-6-6-6-6-6-|5-5-5-5-5-5-5-----|---------5-3--5->|
D|5-3-3-3-3-3-3-5-|5-5-5-5-5-5-5-5-|5-5-5-5-5-5-5-----|--------------5->|
A|3-3-3-3-3-3-3-4-|4-4-4-4-4-4-4-4-|3-3-3-3-3-3-3-----|--------------3->|
E|----------------|----------------|------------------|-----------------|

e|----------------|----------------|
B|----------------|----------------|
G|----------->let-ring-------------|
D|----------->let-ring-------------|
A|----------->let-ring-------------|
E|----------------|----------------|


[3:28-3:56]

e|8h9p8s6---------|----------------|8h9p8s6-----------|----------------|
B|---------8-6-5--|--6-9-----6-----|----------8-6---5-|------5---------|
G|----------------|------5h6-------|----------------4-|------4---------|
D|----------------|------------6p5-|----------------2-|------2---------|
A|----------------|----------------|------------------|--3-3-----3-3-3-|
E|----------------|----------------|------------------|----------------|

e|8h9p8s6---------|----------------|8h9p8s6-----------|------------------|
B|---------8-6-5--|--6-9-----6-----|----------8-6-----|------------------|
G|----------------|------5h6-------|---------------5--|--let-ring--------|
D|----------------|------------6p5-|---------------5--|--let-ring--------|
A|----------------|----------------|---------------3--|--let-ring--------|
E|----------------|----------------|------------------|------------------|

e|----------------|-----4-----4----|-----------------|----------------|
B|5h6p5--------5--|---6---5h6------|5h6p5----------5-|------5---------|
G|-----6---5h6----|------------6p5-|-------6---5h64-|------4---------|
D|----------------|----------------|---------------2-|------2---------|
A|----------------|----------------|-----------------|--3-3----3-3-3--|
E|----------------|----------------|-----------------|----------------|

e|----------------|-----4-----4----|------------------|----------------|
B|5h6p5--------5--|---6---5h6------|5h6p5-------------|----------------|
G|-----6---5h6----|------------6p5-|-------6---5h6---|-5-------5------|
D|----------------|----------------|---------------3s5|-5---3s5-5---3s5|
A|----------------|----------------|---------------1s3|-3---1s3-3---1s3|
E|----------------|----------------|------------------|----------------|


e|----------------|----------------|----------------|
B|----------------|----------------|----------------|
G|-5-------5------|-5-------5------|-5-------5------|
D|-5---3s5-5---3s5|-5---3s5-5---3s5|-5---3s5-5------|
A|-3---1s3-3---1s3|-3---1s3-3---1s3|-3---1s3-3------|
E|----------------|----------------|----------------|

[3:56-End]

slowly
e|----------------|------------|----------------|
B|5h6p5-----------|-----4s5s4--|----------------|
G|-------6--5s3---|----4-------|-5--let ring----|
D|----------------|---4--------|-5--let ring----|
A|----------------|1s2---------|-3--let ring----|
E|----------------|------------|----------------|


-----------------------------------------------------------------------------


GUITAR 2(left)

[0:00-0:12]

e|------8-8-----8-|8---------------|------8-8-----------|----------------|
B|------8-6-----10|8---------------|------8-6---3h5p3s1-|----------------|
G|----------------|----------------|--------------------|0---------------|
D|----------------|----------------|--------------------|----------------|
A|----------------|----------------|--------------------|----------------|
E|----------------|----------------|--------------------|----------------|

e|------8-8-----8-|8---------------|------8-8-----------|----------------|
B|------8-6-----10|8---------------|------8-6---3h5p3s1-|----------------|
G|----------------|----------------|--------------------|0---------------|
D|----------------|----------------|--------------------|----------------|
A|----------------|----------------|--------------------|----------------|
E|----------------|----------------|--------------------|----------------|

[0:13-0:37]

e|----------------|----------------|------------------|------------------|
B|6p5---8p6---9---|8---9-6h8p6s5---|6p5---5-----------|------------------|
G|---0------0---0-|----------------|----6-----5p6-----|-5------6-5---9---|
D|----------------|----------------|----------------8-|---8--------------|
A|----------------|----------------|------------------|------6-----6---6-|
E|----------------|----------------|------------------|------------------|

e|----------------|----------------|----------------|----------------|
B|----------------|6p5---8p6---9---|8---9-6h8p6s5---|6p5---5---------|
G|8----9---6h8-5--|---0-----0----0-|----------------|----6-----5p6---|
D|----------------|----------------|----------------|--------------8-|
A|----------------|----------------|----------------|----------------|
E|----------------|----------------|----------------|----------------|


e|----------------|----------------|-----------8b10r|8---6h8p6s4h6p4s3|
B|6p5---8p6---9---|8----9---6h8-5--|6p5---8p6-------|-----------------|
G|---0------0---0-|----------------|---0-----0------|-----------------|
D|----------------|----------------|----------------|-----------------|
A|----------------|----------------|----------------|-----------------|
E|----------------|----------------|----------------|-----------------|

e|4p3---3---------|----------------|----------------|----------------|
B|----5-----5-4-2-|5533--6655--99--|8-------9-6h8---|6p5----8p6--9---|
G|----------------|----00----00--00|----------------|----0-----0---0-|
D|----------------|----------------|----------------|----------------|
A|----------------|----------------|----------------|----------------|
E|----------------|----------------|----------------|----------------|

e|888888888------8|
B|999999999------8|
G|---------------8|
D|--------------10|
A|--------------10|
E|---------------8|

[0:38-0:44]

e|6-----6-4-----4-|----------------|----------------|---------------|
B|6-----6-4-----4-|----------------|5~~~~~~~~~~~~~~~|---------------|
G|6-----6-5-----5-|8-----8-10----10|5~~~~~~~~~~~~~~~|--------(5)----|
D|8-----8-6-----6-|8-----8-10----10|5~~~~~~~~~~~~~~~|5-------(5)----|
A|8-----8-6-----6-|6-----6-8-----8-|3---------------|5--------------|
E|6-----6-4-----4-|----------------|----------------|3--------------|

[0:44-1:00]
(Rhythm Guitar)

2x
e---|----------------|----------------|----------------|--------------|
B---|----------------|----------------|----------------|--------------|
G-5-|5-----5-5-----5-|5-----5-5-----6-|6-----6-6-----6-|6-----6-6-----|
D-5-|5-----5-5-----5-|5-----5-5-----5-|5-----5-5-----5-|5-----5-5-----|
A-3-|3-----3-3-----3-|3-----3-3-----4-|4-----4-4-----4-|4-----4-4-----|
E---|----------------|----------------|----------------|--------------|

then:
e---|----------------|-------------|
B---|----------------|-------------|
G-5-|5-----5-5-----5-|5-----5-5----|
D-5-|5-----5-5-----5-|5-----5-5----|
A-3-|3-----3-3-----3-|3-----3-3----|
E---|----------------|-------------|

Solo
e|-------|-------------------------8|---------------------------------------|
B|-11b13r|11----8h11p|8----------8--|11b13~r11-8-11-8---------------10------|
G|-------|-----------|------10b12---|----------------10b12r10p8-----10-8----|
D|-------|-----------|--------------|--------------------------10-8---------|
A|-------|-----------|--------------|---------------------------------------|
E|-------|-----------|--------------|---------------------------------------|

[1:00-1:53]

e---|-----------------|----------------|
B---|-----------------|----------------|
G-10|10-9-9-8-8-7-7-6-|6-5-5-4-4-3-3-5-|
D-10|10-9-9-8-8-7-7-6-|6-5-5-4-4-3-3-5-|
A--8|-8-7-7-6-6-5-5-4-|4-3-3-2-2-1-1-3-|
E---|-----------------|----------------|

Jake leg! ....
e|----------------|----------------|----------------|----------------|
B|----------------|----------------|----------------|----------------|
G|5-----5-5-----5-|5-----5-5-----6-|6-----6-6-------|--------------5-|
D|5-----5-5-----5-|5-----5-5-----5-|5-----5-5-----5-|5-----5-5-----5-|
A|3-----3-3-----3-|3-----3-3-----4-|4-------------5-|5-----5-5-----3-|
E|----------------|----------------|------6-6-----3-|3-----3-3-------|

e|----------------|----------------|-------------------|----------------|
B|----------------|----------------|-------------------|----------------|
G|5-----5-5-----5-|5-----5-5-------|-------------------|--------------5-|
D|5-----5-5-----5-|5-----5-5-----10|10-10-10-8-8-8-8-6-|6-6-6-4-4-4-4-5-|
A|3-----3-3-----3-|3-----3-3-----8-|8--7--7--6-6-5-5-4-|4-3-3-2-2-1-1-3-|
E|----------------|----------------|-------------------|----------------|

e|----------------|----------------|----------------|----------------|
B|----------------|----------------|----------------|----------------|
G|5-----5-5-----5-|5-----5-5-----6-|6-----6-6-------|--------------5-|
D|5-----5-5-----5-|5-----5-5-----5-|5-----5-5-----5-|5-----5-5-----5-|
A|3-----3-3-----3-|3-----3-3-----4-|4-------------5-|5-----5-5-----3-|
E|----------------|----------------|------6-6-----3-|3-----3-3-------|


e|----------------|----------------|-------------------|----------------|
B|----------------|----------------|-------------------|----------------|
G|5-----5-5-----5-|5-----5-5-------|-------------------|--------------5-|
D|5-----5-5-----5-|5-----5-5-------|-----------------6-|6-6-6-4-4-4-4-5-|
A|3-----3-3-----3-|3-----3-3-----8-|8--8--8--6-6-6-6-4-|4-3-3-2-2-1-1-3-|
E|----------------|--------------6-|6--5--5--4-4-3-3---|----------------|

e|----------------|----------------|----------------|----------------|
B|----------------|----------------|----------------|----------------|
G|5-----5-5-----5-|5-----5-5-----6-|6-----6-6-------|--------------5-|
D|5-----5-5-----5-|5-----5-5-----5-|5-----5-5-----5-|5-----5-5-----5-|
A|3-----3-3-----3-|3-----3-3-----4-|4-------------5-|5-----5-5-----3-|
E|----------------|----------------|------6-6-----3-|3-----3-3-------|

e|----------------|----------------|-------------------|----------------|
B|----------------|----------------|-------------------|----------------|
G|5-----5-5-----5-|5-----5-5-------|-------------------|--------------5-|
D|5-----5-5-----5-|5-----5-5-----10|10-10-10-8-8-8-8-6-|6-6-6-4-4-4-4-5-|
A|3-----3-3-----3-|3-----3-3-----8-|8--7--7--6-6-5-5-4-|4-3-3-2-2-1-1-3-|
E|----------------|----------------|-------------------|----------------|

e|----------------|----------------|----------------|-------|
B|----------------|--------------6-|6-5-5-4-4-3-3-2-|2-1-1--|
G|5-----5-5-----5-|5-----5-5-------|----------------|------0|
D|5-----5-5-----5-|5-----5-5-------|----------------|-------|
A|3-----3-3-----3-|3-----3-3-------|----------------|-------|
E|----------------|----------------|----------------|-------|

e|----------------|----------------|
B|----------------|----------------|
G|4b5~4b5~4b5~4b5~|4b5~4b5~4b5~4b5~|
D|----------------|----------------|
A|----------------|----------------|
E|----------------|----------------|

[1:53-2:13]

e|----------------|----------------|------------------|------------------|
B|6p5---8p6---9---|8---9-6h8p6s5---|6p5---5-----------|------------------|
G|---0------0---0-|----------------|----6-----5p6-----|-5------6-5---9---|
D|----------------|----------------|----------------8-|---8--------------|
A|----------------|----------------|------------------|------6-----6---6-|
E|----------------|----------------|------------------|------------------|


e|----------------|-----------8b10r|8---6h8p6s4h6p4s3|4p3---3---------|
B|----------------|6p5---8p6-------|-----------------|----5-----5-4-2-|
G|8----9---6h8-5--|---0-----0------|-----------------|----------------|
D|----------------|----------------|-----------------|----------------|
A|----------------|----------------|-----------------|----------------|
E|----------------|----------------|-----------------|----------------|


e|----------------|----------------|----------------|888888888------8|
B|5533--6655--99--|8-------9-6h8---|6p5----8p6--9---|999999999------8|
G|----00----00--00|----------------|----0-----0---0-|---------------8|
D|----------------|----------------|----------------|--------------10|
A|----------------|----------------|----------------|--------------10|
E|----------------|----------------|----------------|---------------8|

e|6-----6-4-----4-|----------------|
B|6-----6-4-----4-|----------------|
G|6-----6-5-----5-|12~~~~~~~~----5-|
D|8-----8-6-----6-|13~~~~~~~~----5-|
A|8-----8-6-----6-|13~~~~~~~~----3-|
E|6-----6-4-----4-|11--------------|

[2:13-3:07]

Lady!....
e|----------------|----------------|----------------|----------------|
B|----------------|----------------|----------------|----------------|
G|5-----5-5-----5-|5-----5-5-----6-|6-----6-6-------|--------------5-|
D|5-----5-5-----5-|5-----5-5-----5-|5-----5-5-----5-|5-----5-5-----5-|
A|3-----3-3-----3-|3-----3-3-----4-|4-------------5-|5-----5-5-----3-|
E|----------------|----------------|------6-6-----3-|3-----3-3-------|

e|----------------|----------------|-------------------|----------------|
B|----------------|----------------|-------------------|----------------|
G|5-----5-5-----5-|5-----5-5-------|-------------------|--------------5-|
D|5-----5-5-----5-|5-----5-5-----10|10-10-10-8-8-8-8-6-|6-6-6-4-4-4-4-5-|
A|3-----3-3-----3-|3-----3-3-----8-|8--7--7--6-6-5-5-4-|4-3-3-2-2-1-1-3-|
E|----------------|----------------|-------------------|----------------|

e|----------------|----------------|----------------|----------------|
B|----------------|----------------|----------------|----------------|
G|5-----5-5-----5-|5-----5-5-----6-|6-----6-6-------|--------------5-|
D|5-----5-5-----5-|5-----5-5-----5-|5-----5-5-----5-|5-----5-5-----5-|
A|3-----3-3-----3-|3-----3-3-----4-|4-------------5-|5-----5-5-----3-|
E|----------------|----------------|------6-6-----3-|3-----3-3-------|


e|----------------|----------------|-------------------|----------------|
B|----------------|----------------|-------------------|----------------|
G|5-----5-5-----5-|5-----5-5-------|-------------------|--------------5-|
D|5-----5-5-----5-|5-----5-5-------|-----------------6-|6-6-6-4-4-4-4-5-|
A|3-----3-3-----3-|3-----3-3-----8-|8--8--8--6-6-6-6-4-|4-3-3-2-2-1-1-3-|
E|----------------|--------------6-|6--5--5--4-4-3-3---|----------------|

e|----------------|----------------|----------------|----------------|
B|----------------|----------------|----------------|----------------|
G|5-----5-5-----5-|5-----5-5-----6-|6-----6-6-------|--------------5-|
D|5-----5-5-----5-|5-----5-5-----5-|5-----5-5-----5-|5-----5-5-----5-|
A|3-----3-3-----3-|3-----3-3-----4-|4-------------5-|5-----5-5-----3-|
E|----------------|----------------|------6-6-----3-|3-----3-3-------|

e|----------------|----------------|-------------------|----------------|
B|----------------|----------------|-------------------|----------------|
G|5-----5-5-----5-|5-----5-5-------|-------------------|--------------5-|
D|5-----5-5-----5-|5-----5-5-----10|10-10-10-8-8-8-8-6-|6-6-6-4-4-4-4-5-|
A|3-----3-3-----3-|3-----3-3-----8-|8--7--7--6-6-5-5-4-|4-3-3-2-2-1-1-3-|
E|----------------|----------------|-------------------|----------------|

e|----------------|----------------|----------------|-------|
B|----------------|--------------6-|6-5-5-4-4-3-3-2-|2-1-1--|
G|5-----5-5-----5-|5-----5-5-------|----------------|------0|
D|5-----5-5-----5-|5-----5-5-------|----------------|-------|
A|3-----3-3-----3-|3-----3-3-------|----------------|-------|
E|----------------|----------------|----------------|-------|

e|0h1-1s3-3s4|-4s6-6s11-11s|8-8-8-8-8-8-8-8-|8-8-8-8-8-8-8-8-|
B|0h1-1s3-3s4|-4s6-6s11-11s|8-8-8-8-8-8-8-8-|8-8-8-8-8-8-8-8-|
G|---0---0---|0---0----0---|----------------|----------------|
D|-----------|-------------|----------------|----------------|
A|-----------|-------------|----------------|----------------|
E|-----------|-------------|----------------|----------------|

[3:07-3:28]

e|----------------|----------------|----------------|----------------|
B|----------------|----------------|--------------5-|---let ring-----|
G|5h6p5p3---------|----------------|5h6p5p3---------|----------------|
D|----------5-3-2-|3-6--------3----|----------5-3-5-|---let ring-----|
A-----------------|------3h4-------|--------------3-|---let ring-----|
E-----------------|------------4p3-|----------------|----------------|


e|----------------|----------------|------------------|-----------------|
B|----------------|----------------|------------------|-----------------|
G|5-------------6-|----------------|-5--------------6-|-----------------|
D|5-------------5-|----------------|-5--------------5-|-----------------|
A|3---3-3-3-3-3-4-|--4-4-4-4-4-4-4-|-3----3-3-3-3-3-4-|---4-4-4-4-4-4-4-|
E|----------------|----------------|------------------|-----------------|

e|----------------|----------------|--------------8h9-|8-----------------|
B|----------------|----------------|------------------|-11-9-8-----------|
G|5-5-5-5-5-5-5-6-|6-6-6-6-6-6-6-6-|5-5-5-5-5-5-5-----|--------10-8------|
D|5-3-3-3-3-3-3-5-|5-5-5-5-5-5-5-5-|5-5-5-5-5-5-5-----|--------------10->|
A|3-3-3-3-3-3-3-4-|4-4-4-4-4-4-4-4-|3-3-3-3-3-3-3-----|--------------10->|
E|----------------|----------------|------------------|--------------8-->|

e|----------------|----------------|
B|----------------|----------------|
G|----------->let-ring-------------|
D|----------->let-ring-------------|
A|----------->let-ring-------------|
E|----------------|----------------|

[3:28-3:56]

e|----------------|----------------|----------------|----------------|
B|----------------|----------------|--------------5-|------5---------|
G|5h6p5p3---------|----------------|5h6p5p3-------4-|------4---------|
D|----------5-3-2-|3-6--------3----|----------5-3-2-|------2---------|
A-----------------|------3h4-------|----------------|--3-3-----3-3-3-|
E-----------------|------------4p3-|----------------|----------------|

e|----------------|----------------|----------------|----------------|
B|----------------|----------------|--------------5-|---let ring-----|
G|5h6p5p3---------|----------------|5h6p5p3---------|----------------|
D|----------5-3-2-|3-6--------3----|----------5-3-5-|---let ring-----|
A-----------------|------3h4-------|--------------3-|---let ring-----|
E-----------------|------------4p3-|----------------|----------------|

e|----------------|----------------|----------------|----------------|
B|----------------|----------------|--------------5-|------5---------|
G|5h6p5p3---------|--1-------------|5h6p5p3-------4-|------4---------|
D|----------5-3-2-|3----------1----|----------5-3-2-|------2---------|
A-----------------|------2h3-------|----------------|--3-3-----3-3-3-|
E-----------------|------------4p3-|----------------|----------------|

e|----------------|----------------|-----------------|----------------|
B|----------------|----------------|-----------------|----------------|
G|5h6p5p3---------|--1-------------|5h6p5p3----------|-5-------5------|
D|----------5-3-2-|3----------1----|----------5-3-3s5|-5---3s5-5---3s5|
A-----------------|------2h3-------|--------------1s3|-3---1s3-3---1s3|
E-----------------|------------4p3-|-----------------|----------------|

e|----------------|----------------|----------------|
B|----------------|----------------|----------------|
G|-5-------5------|-5-------5------|-5-------5------|
D|-5---3s5-5---3s5|-5---3s5-5---3s5|-5---3s5-5------|
A|-3---1s3-3---1s3|-3---1s3-3---1s3|-3---1s3-3------|
E|----------------|----------------|----------------|

[3:56-End]

Slowly
e|----------------|---------------|---------------|
B|----------------|--------4s5s4--|---------------|
G|5h6p5p3---------|------4--------|-5----let ring-|
D|------------5s3-|----4----------|-5----let ring-|
A|----------------|1s2------------|-3----let ring-|
E|----------------|---------------|---------------|
Tap to rate this tab
# A B C D E F G H I J K L M N O P Q R S T U V W X Y Z