Song name
# A B C D E F G H I J K L M N O P Q R S T U V W X Y Z

Baroness - Bullheads Psalm tab

Tuning D Standard (D G C F A D)

Guitar 1(Rhythm)
Guitar 2(Clean Lead)
Guitar 3(Fuzz Lead)
Guitar 4(Distorted Lead)


Guitar 1 (0:00)
|----------5--0---------------5--0------------|
|-------6--------6---------6--------6---------|
|----7------------------7---------------------|
|-0------------------0------------------------|
|---------------------------------------------|
|---------------------------------------------| x2

Guitar 2 Enters(0:08)
|----------12----------------12---------------|
|-------10----10----------10----10------------|
|----10----------10----10----------10---------|
|-12----------------12------------------------|
|---------------------------------------------|
|---------------------------------------------|

Guitar 1 (0:12)
|--------------------------------------1-----1--|
|-----6---------6---------6-----6----3-----3----|
|---7---------5---------7-----7----2-----2------|
|-0-------0h7-------7s8-----8-------------------|
|-----------------------------------------------|
|-----------------------------------------------|

|-------------------------------------------0-----|
|-----6-----6-----5-----5-----5-----5-----3---3---|
|---5-----5-----5-----5-----5-----5-----2-------2-|
|-7-----7-----7-----7-----5-----5-----0-----------|
|-------------------------------------------------|
|-------------------------------------------------|

Guitar 2 (0:12)
|-------------------10----s10-----------------|
|------------s10-------13-----13--11-10~~~~~~~|
|-10---10-12----------------------------------|
|---------------------------------------------|
|---------------------------------------------|
|---------------------------------------------|

|---------------------------------------------|
|---------------------------------------------|
|-10---10-9-----------7------------7--9--10---|
|-----------10----------10--------------------|
|-----------------7s8----------7s8------------|
|---------------------------------------------|

Guitar 1 (0:32)
|--------------------------------------1-----1--|
|-----6---------6---------6-----6----3-----3----|
|---7---------5---------7-----7----2-----2------|
|-0-------0h7-------7s8-----8-------------------|
|-----------------------------------------------|
|-----------------------------------------------|

|-------------------------------------------0-----|
|-----6-----6-----5-----5-----5-----5-----3---3---|
|---5-----5-----5-----5-----5-----5-----2-------2-|
|-7-----7-----7-----7-----5-----5-----0-----------|
|-------------------------------------------------|
|-------------------------------------------------|

Guitar 2(0:32)
|---------------------10----s10---------------|
|-------------s10--------13-----13--11-10~~~~~|
|-10----10-12---------------------------------|
|---------------------------------------------|
|---------------------------------------------|
|---------------------------------------------|

|--------------------------------------------------------|
|-----------------------------------------10-11----------|
|-10----10-9-------------9-10-12--9-10-12-------7--9--10-|
|------------10----10h12---------------------------------|
|--------------------------------------------------------|
|--------------------------------------------------------|

Guitar 3 Enters (0:32)
|------------------------------------------------------------------|
|-10----11-10------------------------------------------------------|
|-------------10--------------9-9h10p9-7-9-7-9-9-9h10p9-7-9-7-9-10-|
|----------------10-7----7-10--------------------------------------|
|------------------------------------------------------------------|
|------------------------------------------------------------------|

|--------------------------------------------------------------------------|
|-----------------------------------------------------10-11---13b-10h11p10-|
|-9h10-----9h10p9-7------------------9-10-12--9-10-12----------------------|
|-------------------10-7~~~~--10h12----------------------------------------|
|--------------------------------------------------------------------------|
|--------------------------------------------------------------------------|

Guitar 4 Enters (0:32)
|--------------------------------------------------------------|
|--------------------------------------------------------------|
|--------------------------------------------------------------|
|-7------8-7---------------------------------------------------|
|------------8------------7-7h8p7-5-7-5-7-7-7h8p7-5-7-5-7-8----|
|--------------8-5----5-7--------------------------------------|


|----------------------------------------------------------------|
|----------------------------------------------------------------|
|----------------------------------------------------------------|
|------------------------------------------------7-8--10b--7h8p7-|
|-7h8-----7h8p7-5----------------7-8-10---7-8-10-----------------|
|-----------------8-5-------8-10---------------------------------|

Guitar 2 (0:50)
|--------------10----s10-----10-12-13--13--13--13-|
|-------10--------13------------------------------|
|-10-12-------------------------------------------|
|-------------------------------------------------|
|-------------------------------------------------|
|-------------------------------------------------|

|-12--12--12--12--12--12--12--12s13~~~~~~~~~~~|
|---------------------------------------------|
|---------------------------------------------|
|---------------------------------------------|
|---------------------------------------------|
|---------------------------------------------|

Guitar 3(0:50)
|----------------------------------------------------|
|----------------------------------------------------|
|-7-9-10-----------12-10-9-9s10---10---10---10---10--|
|----------------------------------------------------|
|-5-7-8------------10-8--7-7s8----8----8----8----8---|
|----------------------------------------------------|

|-------------------------------------------|
|-------------------------------------------|
|-9---9---9---9---9---9---9---9s10~~~~~~~~~-|
|-------------------------------------------|
|-7---7---7---7---7---7---7---7s8~~~~~~~~~~-|
|-------------------------------------------|
Tap to rate this tab
# A B C D E F G H I J K L M N O P Q R S T U V W X Y Z